Song name
# A B C D E F G H I J K L M N O P Q R S T U V W X Y Z

Misc Unsigned Bands - David Benson - Second Coming tab

Artist: David Benson
Album: Purpose of the cross
Song: Second Coming
Year: 1995

INTRO
e|------------------------------------------------------------------------|
B|------------------------------------------------------------------------|
G|------------------------------------------------------------------------|
D|---5-3-3h1---------5-3-3h1---------5-3-3h1---------5-3-3h1--------------|
A|-1---------4h3h1-1---------4h3h1-1---------4h3h1-1---------4h3h1--------|
E|------------------------------------------------------------------------| 
Start the whole song on distortion and 
gain and do a slide down from the 5th fret to the 1st fret. 

  VERSE
e|------------------------------------------------------|
B|------------------------------------------------------|
G|-5-5-5-5-5-5-5-5-5-5-3-3-3-3-3-3-3-3-3-3-5-5-5-5-5----|
D|-5-5-5-5-5-5-5-5-5-5-3-3-3-3-3-3-3-3-3-3-5-5-5-5-5----|
A|-3-3-3-3-3-3-3-3-3-3-1-1-1-1-1-1-1-1-1-1-3-3-3-3-3----|
E|------------------------------------------------------|

Repeat verse 4x. PRE - CHORUS                 CHORUS
e|-------------|-----------------------------|-------------------------------|
B|-------------|-----------------------------|-------------------------------|
G|-5-5-5-5-5-6-|-----------------------------|--3--5--3------3--5--3---------|
D|-5-5-5-5-5-6-|---5-3-3h1---5-3-3h1---------|--3--5--3-3-5--3--5--3---------|
A|-3-3-3-3-3-4-|-1---------1-----------------|--1--3--1------1--3--1-3-5-----|
E|-------------|-----------------------------|-------------------------------| 

e|------------------------------------------------------|
B|------------------------------------------------------|
G|-3--5--3------3--5--3------3--5--3------3--5--3-------|
D|-3--5--3-3-5--3--5--3------3--5--3-3-5--3--5--3-------|
A|-1--3--1------1--3--1-3-5--1--3--1------1--3--1-3-5---|
E|------------------------------------------------------|

e|------------------------------------------------------|
B|------------------------------------------------------|
G|-3--5--3------3--5--3---------------------------------|
D|-3--5--3-3-5--3--5--3---------------------------------|
A|-1--3--1------1--3--1-3-5-----------------------------|
E|------------------------------------------------------|

POST - CHORUS
e|------------------------------------------------------------------------|
B|------------------------------------------------------------------------|
G|------------------------------------------------------------------------|
D|---5-3-3h1---------5-3-3h1---------5-3-3h1---------5-3-3h1--------------|
A|-1---------4h3h1-1---------4h3h1-1---------4h3h1-1---------4h3h1--------|
E|------------------------------------------------------------------------|

VERSE
e|----------------------------------------------------------------|
B|----------------------------------------------------------------|
G|-5-5-5-5-5-5-5-5-5-5-3-3-3-3-3-3-3-3-3-3-5-5-5-5-5-5-5-5-5-5-6--|
D|-5-5-5-5-5-5-5-5-5-5-3-3-3-3-3-3-3-3-3-3-5-5-5-5-5-5-5-5-5-5-6--|
A|-3-3-3-3-3-3-3-3-3-3-1-1-1-1-1-1-1-1-1-1-3-3-3-3-3-3-3-3-3-3-4--|
E|----------------------------------------------------------------|

e|----------------------------------------------------------------|
B|----------------------------------------------------------------|
G|-5-5-5-5-5-5-5-5-5-5-3-3-3-3-3-3-3-3-3-3-5-5-5-5-5-5-5-5-5-5-6--|
D|-5-5-5-5-5-5-5-5-5-5-3-3-3-3-3-3-3-3-3-3-5-5-5-5-5-5-5-5-5-5-6--|
A|-3-3-3-3-3-3-3-3-3-3-1-1-1-1-1-1-1-1-1-1-3-3-3-3-3-3-3-3-3-3-4--|
E|----------------------------------------------------------------|

e|----------------------------------------------------------------|
B|----------------------------------------------------------------|
G|-5-5-5-5-5-5-5-5-5-5-3-3-3-3-3-3-3-3-3-3-5-5-5-5-5-5-5-5-5-5-6--|
D|-5-5-5-5-5-5-5-5-5-5-3-3-3-3-3-3-3-3-3-3-5-5-5-5-5-5-5-5-5-5-6--|
A|-3-3-3-3-3-3-3-3-3-3-1-1-1-1-1-1-1-1-1-1-3-3-3-3-3-3-3-3-3-3-4--|
E|----------------------------------------------------------------|

e|----------------------------------------------------------------|
B|----------------------------------------------------------------|
G|-5-5-5-5-5-5-5-5-5-5-3-3-3-3-3-3-3-3-3-3-5-5-5-5-5-5-5-5-5-5-6--|
D|-5-5-5-5-5-5-5-5-5-5-3-3-3-3-3-3-3-3-3-3-5-5-5-5-5-5-5-5-5-5-6--|
A|-3-3-3-3-3-3-3-3-3-3-1-1-1-1-1-1-1-1-1-1-3-3-3-3-3-3-3-3-3-3-4--|
E|----------------------------------------------------------------|

PRE - CHORUS
e|---------------------------|
B|---------------------------|
G|---------------------------|
D|---5-3-3h1---5-3-3h1-------|
A|-1---------1---------------|
E|---------------------------|


CHORUS
e|------------------------------------------------------|
B|------------------------------------------------------|
G|-3--5--3------3--5--3------3--5--3------3--5--3-------|
D|-3--5--3-3-5--3--5--3------3--5--3-3-5--3--5--3-------|
A|-1--3--1------1--3--1-3-5--1--3--1------1--3--1-3-5---|
E|------------------------------------------------------|

e|------------------------------------------------------|
B|------------------------------------------------------|
G|-3--5--3------3--5--3------3--5--3------3--5--3-------|
D|-3--5--3-3-5--3--5--3------3--5--3-3-5--3--5--3-------|
A|-1--3--1------1--3--1-3-5--1--3--1------1--3--1-3-5---|
E|------------------------------------------------------|

SOLO (Use a wah - pedal and a whammy bar)
e|--------------------------------11b----------9b--9~~~w-----------------------|
B|--------------------------------13b-13-13h11-11b-11~~w-9b-9h11-11b-11~~~w----|
G|-3b--5b--3b------3b--5b--3b-----11b----------9b--9~~~w-----------------------|
D|-3b--5b--3b-3-5--3b--5b--3b--------------------------------------------------|
A|-1b--3b--1b------1b--3b--1b-3-5----------------------------------------------|
E|-----------------------------------------------------------------------------|


SOLO BACKING
e|------------------------------------------------------|
B|------------------------------------------------------|
G|-3--5--3------3--5--3------3--5--3------3--5--3-------|
D|-3--5--3-3-5--3--5--3------3--5--3-3-5--3--5--3-------|
A|-1--3--1------1--3--1-3-5--1--3--1------1--3--1-3-5---|
E|------------------------------------------------------|

e|------------------------------------------------------|
B|------------------------------------------------------|
G|-3--5--3------3--5--3------3--5--3------3--5--3-------|
D|-3--5--3-3-5--3--5--3------3--5--3-3-5--3--5--3-------|
A|-1--3--1------1--3--1-3-5--1--3--1------1--3--1-3-5---|
E|------------------------------------------------------|

FADE - OUT


Used Tab Symbols
_____________________
 h  = Hammer On
 p  = Pull Off
 ~  = Sustain
 v  = Vibrato
 w  = Whammy bar
 b  = Bend Up
 hb = Bend Halfway
 /  = Slide Up
 \  = Slide Down
 *  = Trill
 x  = Muted Note
 H  = Harmonic
 t  = Right Hand Tap
 :  = Let Ring
_____________________
Tap to rate this tab
# A B C D E F G H I J K L M N O P Q R S T U V W X Y Z