Song name
# A B C D E F G H I J K L M N O P Q R S T U V W X Y Z

Misc Unsigned Bands - Maddji - Iditguovssu Dawn Light tab

-------------------------------------------------------------------------------
                         Iditguovssu (Dawn Light) - Máddji
-------------------------------------------------------------------------------

Album: Dobbelis (2010)

Tuning: E standard
Tempo: ~60 BPM

Found here: www.youtube.com/watch?v=46WW3D5a_TU

The guitar parts for this song are really simple, and repeat for the entire track.

Lead:

   E   S S S S S S E   S S S S E     E.    S S T T S S H
e|---------------------------------|---------5h6p5----------------------------|
B|---------------------------------|-6-----8-------8-6-8----------------------|
G|-----7-5---5-7-------------5-7---|------------------------------------------|
D|-5-------8-----------5---8-------|------------------------------------------|
A|---------------5-8-----8---------|------------------------------------------|
E|---------------------------------|------------------------------------------|

Harmony:

   E   S S S S S S E   S S Q         Q       S  S  S S H
e|---------------------------------|------------------------------------------|
B|---------------------------------|------------------------------------------|
G|-----7-5---5-7-------------------|------------------------------------------|
D|-5-------8-----------5-----------|------------5--7-8-5----------------------|
A|---------------5-8-----8-5-------|-8-------8--------------------------------|
E|---------------------------------|------------------------------------------|


************************************

| /   slide up
| \   slide down
| h   hammer-on
| p   pull-off
| ~   vibrato
| +   harmonic
| x   Mute note
| b   Bend
| pb  Pre-bend
| br  Bend release
| pbr Pre-bend release
| brb Bend release bend

************************************
Tap to rate this tab
# A B C D E F G H I J K L M N O P Q R S T U V W X Y Z