Song name
# A B C D E F G H I J K L M N O P Q R S T U V W X Y Z

Misc Unsigned Bands - Frau Doktor - Schuld Ist Sie tab

-----------------------------------------------------------------------------
                             Frau Doktor - Schuld ist Sie
-----------------------------------------------------------------------------
Tabbed by: eybasti
E-mail: basti_bsa@hotmail.de

Tuning: E-A-D-G

(0:00) Intro 

4x

|--------------------------------|
|---------5----------------------|
|-----5--------------5---5-5-78--|
|-5-5---5------5-5-5---5---------|

(0:12) Verse

2x

|--------------------|------------6-7-6--|
|--------------------|-----------7-7-7---|
|----------7--7777777|-5-5-555-----------|
|-5-5-555------------|-------------------|

2x

|--------------------|-------------------|
|--------------------|-------------------|
|----------7--7777777|-5-5-555----4-5-4--|
|-5-5-555------------|-----------5-5-5---|

(0:34) 

|----------------------------------------|
|-77777777-66666666-44444444-22242-------|
|---------------------------------24-----|
|----------------------------------------|

|----------------------------------------|
|----------------------------------------|
|----------77777777-55555555----33-------|
|-55555555--------------------------33---|

(0:44) Chorus 

|-----------------------------------------------|----------------|
|-------------------6-9--9-6-------4-7--7-4-----|----44-66-7-9---|
|----4-7--7-4-----7----------7---5----------5---|-55-------------|
|--5----------5---------------------------------|----------------|

|-----------------------------------------------|----------------|
|-------------------6-9--9-6-------4-7--7-4-----|----------------|
|----4-7--7-4-----7----------7---5----------5---|-7-55-44-24-----|
|--5----------5---------------------------------|----------------|

|-----------------------------------------------|----------------|
|-------------------6-9--9-6-------4-7--7-4-----|----44-66-7-9---|
|----4-7--7-4-----7----------7---5----------5---|-55-------------|
|--5----------5---------------------------------|----------------|

|-----------------------------------------------|----------------|
|-------------------6-9--9-6-------4-7--7-4-----|----------------|
|----4-7--7-4-----7----------7---5----------5---|----------------|
|--5----------5---------------------------------|-99-77-55-77----|


(1:07) Verse 

2x 

|--------------------|------------6-7-6--|
|--------------------|-----------7-7-7---|
|----------7--7777777|-5-5-555-----------|
|-5-5-555------------|-------------------|


2x

|--------------------|-------------------|
|--------------------|-------------------|
|----------7--7777777|-5-5-555----4-5-4--|
|-5-5-555------------|-----------5-5-5---|


|----------------------------------------|
|-77777777-66666666-44444444-22242-------|
|---------------------------------24-----|
|----------------------------------------|

|----------------------------------------|
|----------------------------------------|
|----------77777777-55555555----33-------|
|-55555555--------------------------33---|


(1:40) Chorus 


|-----------------------------------------------|----------------|
|-------------------6-9--9-6-------4-7--7-4-----|---4-5-66-7-9---|
|----4-7--7-4-----7----------7---5----------5---|-5--------------|
|--5----------5---------------------------------|----------------|

|-----------------------------------------------|----------------|
|-------------------6-9--9-6-------44-77-4------|----44-66-7-9---|
|----4-7--7-4-----7----------7---5---------5----|-55-------------|
|--5----------5---------------------------------|----------------|

|-----------------------------------------------|----------------|
|-------------------6-9--9-6-------4-7--7-4-----|----------------|
|----4-7--7-4-----7----------7---5----------5---|-7-55-44-24-----|
|--5----------5---------------------------------|----------------|

|-----------------------------------------------|----------------|
|-------------------6-9--9-6-------4-7--7-4-----|----------------|
|----4-7--7-4-----7----------7---5----------5---|----------------|
|--5----------5---------------------------------|-99-77-55-77----|


(2:03) 8x -Intro- 


|--------------------|------------6-7-6--|
|--------------------|-----------7-7-7---|
|----------7--7777777|-5-5-555-----------|
|-5-5-555------------|-------------------|


|--------------------|-------------------|
|--------------------|-------------------|
|----------7--7777777|-5-5-555---33------|
|-5-5-555------------|---------------33--|

(2:35) Chorus 

|-----------------------------------------------|----------------|
|-------------------6-9--9-6-------4-7--7-4-----|----44-66-7-9---|
|----4-7--7-4-----7----------7---5----------5---|-55-------------|
|--5----------5---------------------------------|----------------|

|-----------------------------------------------|----------------|
|-------------------6-9--9-6-------4-7--7-4-----|----------------|
|----4-7--7-4-----7----------7---5----------5---|-7-55-44-24-----|
|--5----------5---------------------------------|----------------|

|-----------------------------------------------|----------------|
|-------------------6-9--9-6-------44-77-4------|---66-99-6------|
|----4-7--7-4-----7----------7---5---------5----|-7---------7----|
|--5----------5---------------------------------|----------------|

|-----------------------------------------------|----------------|
|-------------------6-9--9-6-------4-7--7-4-----|----------------|
|----4-7--7-4-----7----------7---5----------5---|----------------|
|--5----------5---------------------------------|-99-77-55-77----|

|--------------------|------------6-7-6--|
|--------------------|-----------7-7-7---|
|----------7--7777777|-5-5-555-----------|
|-5-5-555------------|-------------------|

|----------------------------------------|
|-77777777-66666666-44444444-22242-------|
|---------------------------------24-----|
|----------------------------------------|

|----------------------------------------|
|----------------------------------------|
|----------77777777-55555555---33--------|
|-55555555-------------------------33--55|
Tap to rate this tab
# A B C D E F G H I J K L M N O P Q R S T U V W X Y Z