Song name
# A B C D E F G H I J K L M N O P Q R S T U V W X Y Z

Misc Unsigned Bands - Fit For A King - Ancient Waters tab

Here you go.

Drop A# Tuning
A# F A# D# G C

|-----------------------------------------------------|
|-----------------------------------------------------|
|-----------------------------------------------------|
|---0---7-7-7-7-7---0---8-8-8-8-8---------------------|
|---0---5-5-5-5-5---0---6-6-6-6-6---------------------|
|---0---------------0---------------1-1-1-1-1-1-1-1---|


|-----------------------------------------------------|
|-----------------------------------------------------|
|-----------------------------------------------------|
|---0---7-7-7-7-7---0---8-8-8-8-8---------------------|
|---0---5-5-5-5-5---0---6-6-6-6-6---------------------|
|---0---------------0---------------1-1--1-1--1-1-----|


"I Have Come To Destroy"

|---------------------------------------------------------------|
|---------------------------------------------------------------|
|---------------------------------------------------------------|
|---------------------------------------------------------------|
|---------------------------------------------------------------|
|---0--12-12-12-12-12p0----13-13-13-13-13p0---1-1-1-1-1-1-1-1---|

|-------------------------------------------------------------|
|-------------------------------------------------------------|
|-------------------------------------------------------------|
|-------------------------------------------------------------|
|-------------------------------------------------------------|
|---0--12-12-12-12-12p0----13-13-13-13-13p0---1-1--1-1--1-1---|


Rate/Comment Please!
Tap to rate this tab
# A B C D E F G H I J K L M N O P Q R S T U V W X Y Z