Song name
# A B C D E F G H I J K L M N O P Q R S T U V W X Y Z

Misc Unsigned Bands - Resurrect - Kyle Hunter tab

I found this song on youtube by a guy named Kyle Hunter(I assume that's his real name as 
it's his username)
http://www.youtube.com/watch?v=grYXyXgJrfc

Drop D
There are lot's of hammer-ons and pull-offs but I didn't include them because it's 
pretty obvious where they are.


"main riff"
e-------------------------------------------------------------|
b-------------------------------------------------------------|
g---------------10-7-7-9-7-7----------------10-7---5-----9-7--|
d-------5/7-8-------8-----8---------5/7-8------------7--------|
a-0--5-8----------------------0--5-8--------------------------|
D-0-8-------------------------0-8-----------------------------|


I assume this is the harmony although I'm not sure how "in sync" it is
e----------------------------------------------------------------------|
b----------------------------------------------------------------------|
g------------------13-10--12-10--10-----------------13-10--8-----12-10-|
d----------8/10-11------11-----11------------8/10-11--------10---------|
a-0---8-11---------------------------0---8-11--------------------------|
D-0-11-------------------------------0-11------------------------------|


"verse"

e-----------------------------------------------------|
b-----------------------------------------------------|
g-----------------------------------------------------|
d-5-7-5-3-5-3-3--3-2-3---3--3--3-2---------10-8-7-8---|
a------------5--------3--1--------3-0-----------------|
D-----------------------------------0--x-x------------|



"pre-chorus"
e-------------------------------------|
b-------------------------------------|
g-------------------------------------|
d-4-7-5----2-5-3----3-0-2----10-8-7-8-|
a-------------------------------------|
D-------------------------------------|

Harmony
e-------------------------------------------|
b-------------------------------------------|
g-7-10-8---5-8-6---9-12-10---17-15-14-15----|
d-------------------------------------------|
a-------------------------------------------|
D-------------------------------------------|
Tap to rate this tab
 
# A B C D E F G H I J K L M N O P Q R S T U V W X Y Z