Song name
# A B C D E F G H I J K L M N O P Q R S T U V W X Y Z

Misc Unsigned Bands - All Against Nothing - Victim tab

Lead Part

VERSE

E | -----------------------------------------------|
B | -----------------------------------------------|
G | ---12-10-10-10-12-10-10-10 --------------------|
D | -------------------------------------12-10-----|
A | -----------------------------------------------|
E | -----------------------------------------------|

CHORUS

E|-----------------------------------------------------------------------|
B|-----------------------------------------------------------------------|
G|-12-12-10-10-----------12-12-10-10-----------------------10-10-12-12---|
D|------------12-12-10-10-----------12-12-10-10-10-10-12-12--------------|
A|-----------------------------------------------------------------------|
E|-----------------------------------------------------------------------|


Solo is improvisation around the D Major Scale


Structure
Intro
Verse
Chorus
Verse
Chorus
Bride/Solo
Outro
Tap to rate this tab
# A B C D E F G H I J K L M N O P Q R S T U V W X Y Z