Song name
# A B C D E F G H I J K L M N O P Q R S T U V W X Y Z

Misc Unsigned Bands - Tangerine Kitty - Dumb Ways To Die tab

Intro and verses:
                                                 
e||------------3-------------3----||
B||------------1-------------1----||
G||----------0------------0-------|| Repeat until the end of each verse 
D||-------------------0h3---------||
A||------0h3----------------------||
E||-------------------------------||


Chords for Chorus:
               
e||------0-0---0-0---0-0-0-1------||
B||------1-1---1-1---1-1-1-1------||
G||------0-0---0-0---2-2-2-2------|| 
D||------2-3---2-2---2-2-2-2------||
A||------3-3---2-2---0-0-0-0------||
E||-------------------------------||
         C           Am      

e||------1-1-1-1-----3-3-3-3------||
B||------1-1-1-1-----0-0-0-0------||
G||------2-2-2-2-----0-0-0-0------|| 
D||------3-3-3-3-----0-0-0-0------||
A||------3-3-3-3-----2-2-2-2------||
E||------1-1-1-1-----3-3-3-3------||
         F           G    


e||------0-0---0-0---0-0-0-1------||
B||------1-1---1-1---1-1-1-1------||
G||------0-0---0-0---2-2-2-2------|| 
D||------2-3---2-2---2-2-2-2------||
A||------3-3---2-2---0-0-0-0------||
E||-------------------------------||
         C           Am      

e||------1-1---3-3-------------3------------3----||
B||------1-1---0-0-------------1------------1----||
G||------2-2---0-0-----------0-----------0-------||
D||------3-3---0-0-------------------0h3---------||
A||------3-3---2-2------0h3----------------------||
E||------1-1---3-3-------------------------------||
         F     G
Tap to rate this tab
# A B C D E F G H I J K L M N O P Q R S T U V W X Y Z