Song name
# A B C D E F G H I J K L M N O P Q R S T U V W X Y Z

Misc Unsigned Bands - Shot By Sunrise - Days Go By tab

Shot By SunRise - Days go by

new local Alabama band and here is one of our songs there will be more
to come soon when we get a chance

tabbed by chris Bass/Vocals of Shot By SunRise

Intro/Lead
-----------------------------------------------------------------
-----------------------------------------------------------------
-----------------------------------------------------------------
--------9------9/7-------6----5---4------3---4--4----------------
---7-7----7-7-------4-4----4----4----2-2---3--4------------------
-----------------------------------------------------------------
Intro/Rythm
-----------------------------------------------------------------
-----------------------------------------------------------------
-----------------------------------------------------------------
-----------------------------------------------------------------
-----------------------------------------------------------------
---5---7---10------5-x7--7-x7--10-x7-----------------------------
Verse
-----------------------------------------------------------------
-----------------------------------------------------------------
-----------------------------------------------------------------
-----------------------------------------------------------------
-----------------------------------------------------------------
--5-------------------------7-----------------------10-----------
She's The girl in my class i see her through class i see her everyday
-----------------------------------------------------------------
-----------------------------------------------------------------
-----------------------------------------------------------------
-----------------------------------------------------------------
-----------------------------------------------------------------
--10-----------------------5-------------------------7-----------
i hope she comes my way but i know it can't be true i think im feeling blue
-----------------------------------------------------------------
-----------------------------------------------------------------
-----------------------------------------------------------------
-----------------------------------------------------------------
--5--------------------------------------------------------------
-----------------------------------------------------------------
i really want her bad so now im feeling sad
Chorus
-----------------------------------------------------------------
-----------------------------------------------------------------
-----------------------------------------------------------------
-----------------------------------------------------------------
---------------------------5-------------------------7-----------
-----5-----------------------------------------------------------
but another day goes by and i feel like i could die i missed my chance again
-----------------------------------------------------------------
-----------------------------------------------------------------
-----------------------------------------------------------------
-----------------------------------------------------------------
--5--------------------------------------------------------------
-----------------------------------------------------------------
i think i will cave in
Tap to rate this tab
 
# A B C D E F G H I J K L M N O P Q R S T U V W X Y Z