Song name
# A B C D E F G H I J K L M N O P Q R S T U V W X Y Z

Misc Unsigned Bands - Forgotten Theory - Death Letters tab

			     Death Letters- Forgotten Theory                 
                            
                             www.forgottentheory.iwarp.com

Tabbed by:Forgotten Theory
Email:forgottentheoryrules@yahoo.com
Tuning:standard (all of the song is palm muted,except for the chorus)
        

(palm mute this whole part)   Repeat 5x
e|x-x-x-x-x-x-x-x-x-x-x-x-x-x------------------------------------------------|
B|x-x-x-x-x-x-x-x-x-x-x-x-x-x------------------------------------------------|
G|x-x-x-x-x-x-x-x-x-x-x-x-x-x------------------------------------------------|
D|2-2-2-2-2-2-2-2-x-x-x-x-x-x------------------------------------------------|
A|2-2-2-2-2-2-2-2-0-0-0-0-0-0------------------------------------------------|
E|0-0-0-0-0-0-0-0-3-3-3-2-2-2------------------------------------------------|

Chorus:played with distortion. No Palm mute Repeat 3x
e|---------------------------------------------------------------------------|
B|---------------------------------------------------------------------------|
G|---------------------------------------------------------------------------|
D|7-7-7-7-7-7-2-2-2-2-2-5-5-5------------------------------------------------|
A|7-7-7-7-7-7-2-2-2-2-2-5-5-5------------------------------------------------|
E|5-5-5-5-5-5-0-0-0-0-0-3-3-3------------------------------------------------|

(palm mute this whole part)   Repeat 5x
e|x-x-x-x-x-x-x-x-x-x-x-x-x-x------------------------------------------------|
B|x-x-x-x-x-x-x-x-x-x-x-x-x-x------------------------------------------------|
G|x-x-x-x-x-x-x-x-x-x-x-x-x-x------------------------------------------------|
D|2-2-2-2-2-2-2-2-x-x-x-x-x-x------------------------------------------------|
A|2-2-2-2-2-2-2-2-0-0-0-0-0-0------------------------------------------------|
E|0-0-0-0-0-0-0-0-3-3-3-2-2-2------------------------------------------------|

Chorus:played with distortion. No Palm mute Repeat 3x
e|---------------------------------------------------------------------------|
B|---------------------------------------------------------------------------|
G|---------------------------------------------------------------------------|
D|7-7-7-7-7-7-2-2-2-2-2-5-5-5------------------------------------------------|
A|7-7-7-7-7-7-2-2-2-2-2-5-5-5------------------------------------------------|
E|5-5-5-5-5-5-0-0-0-0-0-3-3-3------------------------------------------------|

For the last verse of the song they do the chorus part and then it ends.
(Distortion) 3x
e|---------------------------------------------------------------------------|
B|---------------------------------------------------------------------------|
G|---------------------------------------------------------------------------|
D|7-7-7-7-7-7-2-2-2-2-2-5-5-5------------------------------------------------|
A|7-7-7-7-7-7-2-2-2-2-2-5-5-5------------------------------------------------|
E|5-5-5-5-5-5-0-0-0-0-0-3-3-3--------------------------------------------------


| pm palm mute
| /  slide up
| \  slide down
| h  hammer-on
| p pull-off
| ~  vibrato
| +  harmonic
| x  Mute note
| - open note
===============================================================================
Tap to rate this tab
 
# A B C D E F G H I J K L M N O P Q R S T U V W X Y Z