Song name
# A B C D E F G H I J K L M N O P Q R S T U V W X Y Z

Misc Unsigned Bands - Freedom Worship - In This Moment tab

     Freedom Worship - In This Moment

135bpm

- Intro1

e -----------------------------5--------------------------/-------------------------|
B -----------5-(let ring)----------5-------------------/----------------------------|
G ------------------------------------------------------/---------------------------|
D -----------------------------------------7---------- /-------7-x16----(4th time)--|
A -------------------------------------------------- --/----------------------------|
E ---------------------------(3 times)-------------/--------------------------------|

- Intro 2    x4

e ---------------7------7---5-5----------------------------------------------------|
B -----7-(x8)-----7-------------7---5-5-5---7-----7-------7--------7--------7-7-7--|
G ---------------------------------------------------------------------------------|
D --------------------------------------------------- 7-7-----7-7-----7-7-----7-7--|
A ---------------------------------------------------------------------------------|
E ---------------------------------------------------------------------------------|

- Repeat Intro 1
- Repeat Intro 2

- Verse 1: Same as Intro 2

- Pre-Chorus    x2

e ------------------------------------------------------|
B ---12-----------15------------8----------7---------8--|
G ---11--x4-----14--x4-------7--x4-----7--x3----7-------|
D ----9-----------12------------5----------5---------5--|
A ------------------------------------------------------|
E ------------------------------------------------------|

- Chorus Part 1    x2

e ---15---------14----------17----|
B ---15--x8----15--x8----15--x16--|
G ---14---------14---------14-----|
D --------------------------------|
A --------------------------------|
E --------------------------------|

- Chorus Part 2    x2

e ----------------------------------------------------2--|
B --------------------3--------------3--------------3----|
G -------------------0---------------2--------------2----|
D ---2---------------5------------------------------0----|
A ---2---------------5---------------2-------------------|
E ---0---------------------------------------------------|

- Instrumental    x2

e -17-x10------15---15---14---14-----------------------------------------------------|
B -----------------------------------------15---15---------------15--------------15--|
G -----------------------------------------------------14---14--------14---14--------|
D -----------------------------------------------------------------------------------|
A -----------------------------------------------------------------------------------|
E -----------------------------------------------------------------------------------|

e -------------------------------------------------------------|
B --------17-------17---------17---15----------15-/slide down--|
G -14---------14-------14-----------------14-------------------|
D -------------------------------------------------------------|
A -------------------------------------------------------------|
E -------------------------------------------------------------|

- Repeat Verse 1 - LET CHORDS RING OUT

- Repeat Pre-Chorus

- Repeat Chorus

- Bridge

e -----12-(Tremolo Picking)---10-(Tremolo Picking)--|
B --------------------------------------------------|
G ------------------------WITH HEAVY DELAY----------|
D --------------------------& OCTAVE PEDAL----------|
A --------------------------------------------------|
E --------------------------------------------------|

           then....

e -----15-x9-------14----------------------------------------------|
B -------------------------15---------15-x3------------------------|
G -------------------------------14----------------------(REPEAT)--|
D -----------------------------------------------------------------|
A -----------------------------------------------------------------|
E -----------------------------------------------------------------|

- Repeat Chorus Part 1 x 4

- Outro    x2

e ---15---------14---------17--|
B ---15---------15---------15--|
G ---14---------14---------14--|
D -----------------------------|
A -----------------------------|
E -----------------------------|
Tap to rate this tab
# A B C D E F G H I J K L M N O P Q R S T U V W X Y Z