Song name
# A B C D E F G H I J K L M N O P Q R S T U V W X Y Z

Misc Unsigned Bands - St Lucia - All Eyes On You tab

Tuning: Standard
Capo: 5

Intro: 

e|---------------------------------------------------------------------------|
B|---------------------------------------------------------------------------|
G|----------0-----------0----------------------------------------------------|
D|-----3------------0------------------0-----------2-------------------------|
A|---2----2------------------------0-----------2-----------------------------|
E|----------------3---3----------2---2-------0---0---------------------------|

Chords Repeated throughout song

e|---3------------3--------------3-----------3-------------------------------|
B|---3------------3--------------3-----------3-------------------------------|
G|---0------------0--------------2-----------0-------------------------------|
D|---2------------0--------------0-----------2-------------------------------|
A|---3------------2--------------0-----------2-------------------------------|
E|----------------3--------------2-----------0-------------------------------|
Tap to rate this tab
# A B C D E F G H I J K L M N O P Q R S T U V W X Y Z