Guitaretab - guitar tabs
Song name
# A B C D E F G H I J K L M N O P Q R S T U V W X Y Z

Misc Unsigned Bands - Lak Of Komon Sense - Not What You Want tab

www.loks.tk

Band: Lak Of Komon Sense
Song: Not What You Want
Album: Radioactive Cat

hey this is a new band and i want every one out there to visit www.loks.tk this
is a great pop-punk band from the uk and theyre influenced mainly by blink 182
[cheer!] and also good charlotte and green day.

VERSE/INTRO: A E D
Bit before chorus: A
CHORUS: A F# D

In other words:
VERSE:
|------------------------------------------------------------------
|------------------------------------------------------------------
|---------99999-77777----------------------------------------------
|--77777--99999-77777----------------------------------------------
|--77777--77777-55555----------------------------------------------
|--55555-----------------------------------------------------------
repeat as many times as necessary

bit before chorus:
|-----------------------
|-----------------------
|-----------------------
|--7>-7>------------------
|--7>-7>-------------------
|--5>-5>-------------------

[ Tab from: http://www.guitaretab.com/m/misc-unsigned-bands/33836.html ]
CHORUS:
|-------------------------------------------------------------------
|-------------------------------------------------------------------
|---------------77777777--------------------------------------------
|---7777--4444--77777777--------------------------------------------
|---5555--4444--55555555--------------------------------------------
|---5555--2222------------------------------------------------------
repeat as many times as necessary

SOLO:
E------12-10-9-10-9--------------12-10-9-10-9---------
B---10--------------12-10----10--------------12-10----
G-----------------------------------------------------
D-----------------------------------------------------
A-----------------------------------------------------
E-----------------------------------------------------

E------12-10-9-10-9--------9-10--12--12
B---10--------------12--10-10--10--10--
G---------------------------------------
D---------------------------------------
A---------------------------------------
E---------------------------------------

E------12-10-9-10-9----------------------
B---10--------------12-10-9-7-5----------
G------------------------------6-7-6-----
D------------------------------------7---
A----------------------------------------
E----------------------------------------

ok i can assure u that ALL this is 100% correct because im really good mates
with the guitarist, and he gave me the solo!have fun!
Related for Lak Of Komon Sense - Not What You Want tab