Song name
# A B C D E F G H I J K L M N O P Q R S T U V W X Y Z

Misc Unsigned Bands - Gifted - Kill God tab

http://www.gifted666.cjb.net  <<< web site address
-------------------------------------------------------------------------------
			     G_i_F_T_e_D - Get Away
-------------------------------------------------------------------------------

Tabbed by: slipknot_maggot  
Email:Slipknot_maggot_corps_666@hotmail.com

Tuning: E A D G B e

 \   = slide down
 b.h = bend and hold

|-1-1-1-1-1-1-1-1-3-3-3-3-3-3-3-3-5-5-5-5-3-3-3-3-1-1-1-1-1-1-1-1-----------|
|---------------------------------------------------------------------------|
|---------------------------------------------------------------------------|
|---------------------------------------------------------------------------|x3
|---------------------------------------------------------------------------|
|---------------------------------------------------------------------------|

|-1-1-1-1-1-1-3-3-3-3-3-3-5-5-5-5-5-5---------------------------------------|
|---------------------------------------------------------------------------|
|---------------------------------------------------------------------------|
|---------------------------------------------------------------------------|
|---------------------------------------------------------------------------|x4
|---------------------------------------------------------------------------|

|-5-5-----7-7-----7-7------5-5----------------------------------------------|
|-----6-6-----8-8-----6-6---------------------------------------------------|
|---------------------------------------------------------------------------|
|---------------------------------------------------------------------------|
|---------------------------------------------------------------------------|x2
|---------------------------------------------------------------------------|

|-5-5-----7-7-----7-7-------------------------------------------------------|
|-----6-6-----8-8-----6-6---------------------------------------------------|
|---------------------------------------------------------------------------|
|---------------------------------------------------------------------------|x3
|---------------------------------------------------------------------------|
|---------------------------------------------------------------------------|

|-1-------2-1--------2-2-2-2-2\5-5-5-5b.h-----------------------------------|
|--2-2-3-3---2-2-3-3--------------------------------------------------------|
|---------------------------------------------------------------------------|
|---------------------------------------------------------------------------|
|---------------------------------------------------------------------------|
|---------------------------------------------------------------------------|

===============================================================================
Tap to rate this tab
# A B C D E F G H I J K L M N O P Q R S T U V W X Y Z