Song name
# A B C D E F G H I J K L M N O P Q R S T U V W X Y Z

Misc Unsigned Bands - Gifted - Gutted tab

http://www.gifted666.cjb.net
-------------------------------------------------------------------------------
			     G_i_F_T_e_D - GuTTeD
-------------------------------------------------------------------------------

Tabbed by:SlipknoT MaGgOt
Email:slipknot_maggot_corps_666@hotmail.com

Tuning: E A D G B e


| \    slide down
| h    hammer-on
| ~    vibrato
| b.r  bend release
| L    Let Ring
| b    bend

|-5-5-5\7b----------------3-3-3h4b-4-4-4b-------------------|
|-----------4h5-5-5\6-0-0-0---------------------------------------|
|-----------------------------------------------------------------|
|-----------------------------------------------------------------|
|-----------------------------------------------------------------|
|-----------------------------------------------------------------|

|-----------------------------------------------------------------|
|-5~-5-5\6-3-0-3-3-2b-h5-5-5L-------------------------------------|
|-----------------------------------------------------------------|
|-----------------------------------------------------------------|x2
|-----------------------------------------------------------------|
|-----------------------------------------------------------------|

|-----------------------------------------------------------------|
|-----------------------------------------------------------------|
|-3~3-0-3-3h4-4-0-4-4b.r-3-3-3-3-0-3------------------------------|
|-----------------------------------------------------------------|
|-----------------------------------------------------------------|
|-----------------------------------------------------------------|

|-----------------------------------------------------------------|
|----3-2-3-0-0-3-3b-----------------------------------------------|
|-3~----------------0L--------------------------------------------|
|-----------------------------------------------------------------|x2
|-----------------------------------------------------------------|
|-----------------------------------------------------------------|

|-----------------------------------------------------------------|
|------------------------------------1\5-5-5-5b-------------------|
|---------------3-3-0-3-3b 0-0-0-1-2------------0-0-0-0L----------|
|-2-2-2h3~3-3-3~--------------------------------------------------|
|-----------------------------------------------------------------|
|-----------------------------------------------------------------|

===============================================================================
Tap to rate this tab
 
# A B C D E F G H I J K L M N O P Q R S T U V W X Y Z