Song name
# A B C D E F G H I J K L M N O P Q R S T U V W X Y Z

Misc Unsigned Bands - Chronic Phobia - Gorilla tab

Play this part in 2/4 time


e- ---------------
D- --------------- 
G- ---------------    Play this 3x's
B- 2---2-22-2-5--7
A- 2---2-22-2-5--7
E- 0---0-00-0-3--5

then play this in 4/4time
e- ----------------------------------------
D- ----------------------------------------
G- ----------------------------------------
B- 2---2--2-2-5---5--5-5-7---7--7-7-8-7-8-7   Play this 4x's
A- 2---2--2-2-5---5--5-5-7---7--7-7-8-7-8-7
E- 0---0--0-0-3---3--3-3-5---5--5-5-6-5-6-5

e- ---------------
D- ---------------
G- ---------------
B- 2---2-22-2-7--5
A- 2---2-22-2-7--5
E- 0---0-00-0-5--3



  SRY if i screwed up on this tab if u see anything wrong e-mail me at chrono@juno.com thx.
Tap to rate this tab
 
# A B C D E F G H I J K L M N O P Q R S T U V W X Y Z