Guitaretab - guitar tabs
Song name
# A B C D E F G H I J K L M N O P Q R S T U V W X Y Z

Misc Unsigned Bands - Ded Parrot - My Life tab

Tuning EADGBE

iNTRO
E----2----2---------------------
B---2---2-----------------------
G--2----------------------------
D-2---2------------------------- X4
A-------------------------------
E-------------------------------




E-0-0-0-0-0-0--0-0-0-0-0-0-0-----------------------
B-0-0-0-0-0-0--0-0-0-0-0-0-0-----------------------
G-2-2-2-2-2-2--2-2-2-2-2-2-2-----------------------
D-2-2-2-2-2-2--2-2-2-2-2-2-2-----------------------
A-0-0-0-0-0-0--0-0-0-0-0-0-0-----------------------
E-0-0-0-0-0-0--0-0-0-0-0-0-0-----------------------


E-0-0-0-0-0-0--0-0-0-0-0-0-0----------------------------------
B-0-0-0-0-0-0--0-0-0-0-0-0-0----------------------------------
G-2-2-2-2-2-2--2-2-2-2-2-2-2----------------------------------
D-0-0-0-0-0-0--0-0-0-0-0-0-0----------------------------------
A-0-0-0-0-0-0--0-0-0-0-0-0-0----------------------------------
E-2-2-2-2-2-2--2-2-2-2-2-2-2----------------------------------
[ Tab from: http://www.guitaretab.com/m/misc-unsigned-bands/33909.html ]
E-0-0-0-0-0-0--0-0-0-0-0-0-0-----------------------
B-0-0-0-0-0-0--0-0-0-0-0-0-0-----------------------
G-2-2-2-2-2-2--2-2-2-2-2-2-2-----------------------
D-2-2-2-2-2-2--2-2-2-2-2-2-2-----------------------
A-0-0-0-0-0-0--0-0-0-0-0-0-0-----------------------
E-0-0-0-0-0-0--0-0-0-0-0-0-0-----------------------


E-1-1-1-1-1-1--1-1-1-1-1-1-1-
B-0-0-0-0-0-0--0-0-0-0-0-0-0-
G-2-2-2-2-2-2--2-2-2-2-2-2-2-
D-2-2-2-2-2-2--2-2-2-2-2-2-2-
A-0-0-0-0-0-0--0-0-0-0-0-0-0-
E-0-0-0-0-0-0--0-0-0-0-0-0-0-

REPAET ALL THIS WITH PALM MUTE IN BETWEEN EACH BEAT THEN PLAY THE SOLO WITH DISTORTION

E-0-0-0-0-0-0-0-0-0-0-0-
B-0-0-0-0-0-0-0-0-0-0-0-
G-2-2-4-4-4-7-7-7-7-7-7-
D-2-2-4-4-4-7-7-7-7-7-7-
A-0-0-2-2-2-5-5-5-5-5-5-
E-0-0-0-0-0-0-0-0-0-0-0-

THEN PLAY THE WHOLE LOT AGAIN (EXCEPT FOR SOLO) NOTE: PLAY THE REPEAT REALLY
HARD, SLAM THOSE STRINGS. THEN PLAY THE INTRO AT THE END AS AN OUTRO.

THIS SONG IS BY MY BAND'S FIRST SONG WOOHOO. ENJOY
Related for Ded Parrot - My Life tab