Song name
# A B C D E F G H I J K L M N O P Q R S T U V W X Y Z

Misc Unsigned Bands - Deap Vally - Baby I Call Hell tab

-----------------------------------------------------------------------------
                             Baby I Call Hell - Deap Vally
-----------------------------------------------------------------------------
Tabbed by:drunja81
E-mail:amrk_91@mail.ru

Tuning:Standart

Intro: x4

e|--------------------------------------------------------------------------|
B|--------------------------------------------------------------------------|
G|--------------------------------------------------------------------------|
D|--------------------------------------------------------------------------|
A|--------5--8--5-5-5-5-5-5--------5--8--5-5-5-5-5-5------------------------|
E|--5--8----------------------5--8------------------------------------------|

e|--------------------------------------------------------------------------|
B|--------------------------------------------------------------------------|
G|--------------------------------------------------------------------------|
D|--------------------------------------------------------------------------|
A|--8--5---------------------------5--8--5-5-5-5-5-5------------------------|
E|--------8--5-5-5-5-5-5------5--8------------------------------------------|


Verse:
e|--------------------------------------------------------------------------|
B|--------------------------------------------------------------------------|
G|--------------------------------------------------------------------------|
D|--------------------------------------------------------------------------|
A|--------5--8--5-5-5-5-5-5--------5--8--5-5-5-5-5-5------------------------|
E|--5--8----------------------5--8------------------------------------------|

e|--------------------------------------------------------------------------|
B|--------------------------------------------------------------------------|
G|--------------------------------------------------------------------------|
D|--------------------------------------------------------------------------|
A|--8--5---------------------------5--8--5-5-5-5-5-5------------------------|
E|--------8--5-5-5-5-5-5------5--8------------------------------------------|

e|--------------------------------------------------------------------------|
B|--------------------------------------------------------------------------|
G|--------------------------------------------------------------------------|
D|--------------------------------------------------x-x-10-10-x-x-x-x-7-7---|
A|-------5--8--5-5-5-5-5-5-------5--8--5-5-5-5-5-5--x-x-10-10-x-x-x-x-7-7---|
E|-5--8---------------------5--8--------------------x-x-8--8--x-x-x-x-5-5---|

e|--------------------------------------------------------------------------|
B|--------------------------------------------------------------------------|
G|--------------------------------------------------------------------------|
D|--------------------------------------------------------------------------|
A|--------5--8--5-5-5-5-5-5-------------------------------------------------|
E|--5--8--------------------------------------------------------------------|

Re-intro x1

e|--------------------------------------------------------------------------|
B|--------------------------------------------------------------------------|
G|--------------------------------------------------------------------------|
D|--------------------------------------------------------------------------|
A|--------5--8--5-5-5-5-5-5--------5--8--5-5-5-5-5-5------------------------|
E|--5--8----------------------5--8------------------------------------------|

e|--------------------------------------------------------------------------|
B|--------------------------------------------------------------------------|
G|--------------------------------------------------------------------------|
D|--------------------------------------------------------------------------|
A|--8--5---------------------------5--8--5-5-5-5-5-5------------------------|
E|--------8--5-5-5-5-5-5------5--8------------------------------------------|

Verse 

e|---------------------------------------------------------------------------
B|---------------------------------------------------------------------------
G|---------------------------------------------------------------------------
D|---------------------------------------------------------------------------
A|--------5--8--5-5-5-5-5-5--------5--8--5-5-5-5-5-5-------------------------
E|--5--8----------------------5--8-------------------------------------------

e|--------------------------------------------------------------------------|
B|--------------------------------------------------------------------------|
G|--------------------------------------------------------------------------|
D|--------------------------------------------------------------------------|
A|--8--5---------------------------5--8--5-5-5-5-5-5------------------------|
E|--------8--5-5-5-5-5-5------5--8------------------------------------------|

e|--------------------------------------------------------------------------|
B|--------------------------------------------------------------------------|
G|--------------------------------------------------------------------------|
D|-------------------------------------------------x-x-10-10-x-x-x-x-7-7-x-x|
A|-------5--8--5-5-5-5-5-5-------5--8--5-5-5-5-5-5-x-x-10-10-x-x-x-x-7-7-x-x|
E|-5--8---------------------5--8-------------------x-x-8--8--x-x-x-x-5-5-x-x|

e|--------------------------------------------------------------------------|
B|--------------------------------------------------------------------------|
G|-10----7----10---------------10-7-----------------------------------------|
D|-10-10-7----10-10-7-/-10-----10-7-----------------------------------------|
A|-8--10-5----8--10-7-/-10-----8--5-----------------------------------------|
E|----8----------8--5-/-8---------------------------------------------------|


Re-intro x2 + x2 drums only 

e|--------------------------------------------------------------------------|
B|--------------------------------------------------------------------------|
G|--------------------------------------------------------------------------|
D|--------------------------------------------------------------------------|
A|--------5--8--5-5-5-5-5-5--------5--8--5-5-5-5-5-5------------------------|
E|--5--8----------------------5--8------------------------------------------|

e|--------------------------------------------------------------------------|
B|--------------------------------------------------------------------------|
G|--------------------------------------------------------------------------|
D|--------------------------------------------------------------------------|
A|--8--5---------------------------5--8--5-5-5-5-5-5------------------------|
E|--------8--5-5-5-5-5-5------5--8------------------------------------------|


Outro x3

e|--------------------------------------------------------------------------|
B|--------------------------------------------------------------------------|
G|-10----7----10---------------10-7-----------------------------------------|
D|-10-10-7----10-10-\-7-/-10---10-7-----------------------------------------|
A|-8--10-5----8--10-\-7-/-10----8-5-----------------------------------------|
E|----8----------8--\-5-/-8-------------------------------------------------|


\
************************************

| /   slide up
| \   slide down
| h   hammer-on
| p   pull-off
| ~   vibrato
| +   harmonic
| x   Mute note
| b   Bend
| pb  Pre-bend
| br  Bend release
| pbr Pre-bend release
| brb Bend release bend

************************************
Tap to rate this tab
# A B C D E F G H I J K L M N O P Q R S T U V W X Y Z