Guitaretab - guitar tabs
Song name
# A B C D E F G H I J K L M N O P Q R S T U V W X Y Z

Misc Unsigned Bands - Shop 11 Phoenix - Random Thoughts tab

(shop11phoenix.com)its a pretty new band. the timing might not be completely accurate.


e-------------------------------------------------------------
b-------------------------------------------------------------
g-------------------------------------------------------------
d-------------------------------------------------------------
a-9--9-9--9-9-9-11--9--8---------------11--9--8-6--6-6--6-6-6-
e------------------------9--9-9--9-9-9------------------------
[ Tab from: http://www.guitaretab.com/m/misc-unsigned-bands/33977.html ]
e-------------------------------------------------------------
b-------------------------------------------------------------
g-------------------------------------------------------------
d-------------------------------------------------------------
a-8--9--8---------------11--9--8---------------11--9--8-9--9-9
e---------6--6-6--6-6-6----------7--7-7--7-7-7---------------

e-------------------------          ya thats it you should really check out
b-------------------------          this band. they aren't very big but they are
g-------------------------          really good.  
d----------------xx11-xx11            
a-9-9-9-11--9--8-xx11-xx11 8x 
e----------------xx9--xx9
Related for Shop 11 Phoenix - Random Thoughts tab
Advertisement will be closed in 10 seconds