Song name
# A B C D E F G H I J K L M N O P Q R S T U V W X Y Z

Misc Unsigned Bands - Park Jefferson - Monuments tab

(/) Slide Up  (\) Slide Down  (h) Hammer On  (p) Pull Off  (b) Bend (r) Release (v) Vibrato
FACGCE Capo 3
Sorry about the upside down tabs

I thought I'd write to you and let you know that I'm still dramatic and sixteen...
F|--4--2--7--0--|
A|--3--2--7--8--|
C|--0--0--0--7--|
G|--0--0--0--0--|
C|--0--0--0--0--|
E|--0--0--0--0--|


Part of me won't finish this story...
F|--0--2--4--7--2--|
A|--3--2--0--7--2--|
C|--0--0--4--0--0--|
G|--0--0--0--0--0--|
C|--0--0--0--0--0--|
E|--0--0--0--0--0--|


Solo part, lots of hammerons, figure out yourself, I can upload a video if you honestly 
need help on it, PM me
F|--0--------------------------------------------------|
A|-----------------------------------------------------|
C|-----------------------------------------------------|
G|--------------------------------------0--4-----------|
C|-----------------0--2-----2--4--2--0--------0--------|
E|-----3--5--3--0--------0-----------------------3--0--|


F|-----------------------------------------------------|
A|--0--------------------------------------------------|
C|-----------------------------------------------------|
G|--------------------------------------0--4-----------|
C|-----------------0--2-----2--4--2--0--------0--------|
E|-----3--5--3--0--------0-----------------------3--0--|


Now my letters have all been returned and I sit around this fire and let them burn...( 
until the end)
F|--0--7--|
A|--3--7--|
C|--0--0--|
G|--0--0--|
C|--0--0--|
E|--0--0--|
Tap to rate this tab
# A B C D E F G H I J K L M N O P Q R S T U V W X Y Z