Song name
# A B C D E F G H I J K L M N O P Q R S T U V W X Y Z

Misc Unsigned Bands - Juju - Huuda tab

-------------------------------------------------------------------------------
                             Huuda - Juju
-------------------------------------------------------------------------------
Tabbed by: Arata2
E-mail: arzi93@luukku.com

Tuning: D tuning

Intro

D|------------10-10----7--------5-------------------------------------------|
A|---8-8------8--8-------8-8------7-7---------------------------------------|
F|---7-7----7---------------------------------------------------------------|
C|-9---------------------9-9------7-7---------------------------------------|
G|--------------------------------------------------------------------------|
D|--------------------------------------------------------------------------|


D|--4------------0------------2------------2--------------------------------|
A|--4------------0------------4------------2--------------------------------|
F|--4------------1------------4------------3--------------------------------|
C|--6------------2------------4------------4--------------------------------|
G|--6------------2------------2------------4--------------------------------|
D|--4------------0-------------------------2--------------------------------|

D|------10-7----------------7-----------------------------------------------|
A|-88888-----10-8-7-8---------10-8-7---7------------------------------------|
F|--------------------99999----------9--------------------------------------|
C|--------------------------------------------------------------------------|
G|--------------------------------------------------------------------------|
D|--------------------------------------------------------------------------|

My first tab so it probably sucks, but there you go
************************************

| /   slide up
| \   slide down
| h   hammer-on
| p   pull-off
| ~   vibrato
| +   harmonic
| x   Mute note
| b   Bend
| pb  Pre-bend
| br  Bend release
| pbr Pre-bend release
| brb Bend release bend

************************************
Tap to rate this tab
# A B C D E F G H I J K L M N O P Q R S T U V W X Y Z