Song name
# A B C D E F G H I J K L M N O P Q R S T U V W X Y Z

Misc Unsigned Bands - Assume The Position - War tab

Artist : Assume The Position
Song : War
Tabbed by an A.T.P guitarist - Pubert Biggins

This is all i'm giving at the moment.......

Intro:
----------------------------------
----------------------------------
-4-x-x-x-x-x-x-x-x-x-x-x-x--5-----
-4-x-x-x-x-x-x-x-x-x-x-x-x--5-----
-2-x-x-x-x-x-x-x-x-x-x-x-x--3-----
----------------------------------

----------------------------------
----------------------------------
----------------------------------
-4-x-x-x-x-x-x-x-x-x-x-x-x--5-----
-4-x-x-x-x-x-x-x-x-x-x-x-x--5-----
-2-x-x-x-x-x-x-x-x-x-x-x-x--3-----

----------------------------------
----------------------------------
----------------------------------
-2-x-x-x-x-x-x-x-x-x-x-x-x--2-----
-2-x-x-x-x-x-x-x-x-x-x-x-x--2-----
-0-x-x-x-x-x-x-x-x-x-x-x-x--0-----

----------------------------------
----------------------------------
----------------------------------
-4-4-4-4-4-4-4-4-5-5-5-4-4-4------
-4-4-4-4-4-4-4-4-5-5-5-4-4-4------
-2-2-2-2-2-2-2-2-3-3-3-2-2-2------
Tap to rate this tab
# A B C D E F G H I J K L M N O P Q R S T U V W X Y Z