Song name
# A B C D E F G H I J K L M N O P Q R S T U V W X Y Z

Misc Unsigned Bands - Ellington - City tab

City by Ellington
Capo on 5th Fret

First & Second Verse
e|-----------------------------------------------------------------|
B|-------3-------------------------------3-------------------------|
G|---0-------0-------0-------0-------0-------0-------0-------0-----|
D|---------------0-------0-------0---------------0-------0-------0-|
A|---------------------------------------------------------3---3---|
E|-3---3---3---3---3---3---2---2---0---0---0---0---0---0-----------|

Chorus
e|---------------------------------------2---------------3---------|
B|-------0-------0-------0-------0---------------------------------|
G|---0-------0-------0-------0-------0-------0---0---0-------0-----|
D|-----------------0---0---0---0---2---2---2---2---2---2---2---2---|
A|-3---3---3---3---------------------------------------------------|
E|-----------------------------------------------------------------|

Post Chorus (only after the second chorus)
e|-----------------------------------------------------------------|
B|-3----3--0---0----------3---0-----------3---0--------------------|
G|---0------0----0----0-----------0---0-----------0----------------|
D|----0------0----0------------------------------------------------|
A|-----------------------------------------------------------------|
E|------------------3---3---3---3---2---2---2---2------------------|

e|---------------0-------------------------------------------------|
B|-------3---0-------0---3---0---0-------3---0-----------3---0-----|
G|---0-------------------------------0-----------0---0-----------0-|
D|-----------------------------------------------------------------|
A|-3---3---3---3---3---3---3---3-----------------------------------|
E|---------------------------------3---3---3---3---2---2---2---2---|

Third Verse (this may vary from the original)
e|-----------------------------------------------------------------|
B|-------0-------0-------0-------0-------3---0-----------3---0-----|
G|---0-------0-------0-------0-------0-----------0---0-----------0-|
D|-----------------------------------------------------------------|
A|-3---3---3---3---3---3---3---3-----------------------------------|
E|---------------------------------3---3---3---3---2---2---2---2---|


And it's a cold year
It's just gonna get worse
And there's a sprinkle drop in your ear
You gotta make it work
And when I see your face and your frame
Iím going to work it out, my way
Because you swore you'd stay

Smile back at me
It's been a while since I've seen such pretty things
Look my way tell me that you love me
you'll stay, that you'll stay

I kinda thought it was cute
When you took my hand
You said you, you said you'd never let go
Why did I even care
She wears a funny ring on her finger
It states that she's married, again, again

Smile back at me
It's been a while since I've seen such pretty things
Look my way tell me that you love me
You'll stay, will you stay

She wears a smile that could make the world jealous
I think she's trying but she kissed the boy she didnít love
She wears a smile that could make the world jealous
I think she's trying but she kissed the boy she didnít love

We forgot too much we're holding on to, holding on to
We forgot too much we're holding on to, holding on to.

Here's the original for a reference. Enjoy :D
http://www.youtube.com/watch?v=okPiIY-gX0g
Tap to rate this tab
# A B C D E F G H I J K L M N O P Q R S T U V W X Y Z