Song name
# A B C D E F G H I J K L M N O P Q R S T U V W X Y Z

Misc Unsigned Bands - Derrival - The Autumn Game tab

This is the guitar tab for Derrival's The Autumn Game.

The lead singer and rhythm guitar play Adam Mah plays this part at the beginning.

E|-------------------|
B|-------------------|
G|-----------4-------|
D|-----5-------------|
A|--------3----------|
E|--3----------------|     x12

After 4 times of this the lead guitar plays this part along with it.

E|-------------------|               E|-------------------------------------|
B|-------------------|               B|-------------------------------------|
G|-0--4--0---7-------|               G|0-4-0-4/5-0-5-0-5/7-0-7-0-7/9-0-9-0-9|
D|-------------------|               D|-------------------------------------|
A|-------------------|               A|-------------------------------------|
E|-------------------|     x4        E|-------------------------------------|

Then the rhythm guitar goes between 4 bars of G and 4 bars of A while the lead guitar 
plays this with tremolo picking.

E|--------------15-17-19-17--|
B|---------------------------|
G|-12-14-16-19---------------|
D|---------------------------|
A|---------------------------|
E|---------------------------|

The guitar parts then alternate between those two.
The song is also free to download here if you haven't.
http://derrival.bandcamp.com/album/the-autumn-game-modern-age-kids-7
Thank you!
Tap to rate this tab
# A B C D E F G H I J K L M N O P Q R S T U V W X Y Z