Song name
# A B C D E F G H I J K L M N O P Q R S T U V W X Y Z

Misc Unsigned Bands - Tj Monterde - Ikaw At Ako tab

Tabbed by : Francis Poquita
Email: francovillarta@gmail.com

Standard Tuning: E A D G B e
Not so sure about the second part but I think I got the first part.

First Part
|-----------------11-----------------|
|----7-7/9--9/11-----11-9-7/9--9/11--|
|--6---------------------------------|
|------------------------------------|
|------------------------------------|
|------------------------------------|


Second Part
|-----------------11---------------------|
|----7-7/9--9/11-----11-9-11-7-----------|
|--6---------------------------6h7-------|
|-----------------------------------6h7--|
|----------------------------------------|
|----------------------------------------|

The end!

( you can also slide the hammer part to the seventh fret then going back to six quickly.)
Tap to rate this tab
 
# A B C D E F G H I J K L M N O P Q R S T U V W X Y Z