Guitaretab - guitar tabs
Song name
# A B C D E F G H I J K L M N O P Q R S T U V W X Y Z

Misc Unsigned Bands - Quadrangle Triangle - Pig Extreme tab

We dont have a website yet, but we're working on it


e---------------------------------------------
B---------------------------------------------Pretty basic kinda beat bop 
G---------------------------------------------rhythm. Tho on the second strum 
D-2-2-5-5-7-7-5-5-5-5-5-----------------------of the 3rd chord its a /| so a
A-2-2-5-5-7-7-5-5-5-5-5-----------------------bit of a mix!!!!
E-0-0-3-3-5-5-3-3-3-3-3-----------------------


[ Tab from: http://www.guitaretab.com/m/misc-unsigned-bands/34081.html ]
solo 1
e---------------------------------------------
B---------------------------------------------This is a similar rhythm but with
G--7-7-9-9-11-11-9-9-9-9-9--------------------a half pint blues style pick-bass
D--7-7-9-9-11-11-9-9-9-9-9-------------------- style, (very Nigel Jackson)
A---------------------------------------------
E---------------------------------------------


solo2

e--12-15-16--------------------------------------21^^^r^^^r^^^
B------------12-15-16--15-16-15-12-9-7-2-1-0-1/20-------------End on a G7
G-------------------------------------------------------------
D-------------------------------------------------------------This is played 
A-------------------------------------------------------------with a wah pedal
E-------------------------------------------------------------up 5 octaves
Related for Quadrangle Triangle - Pig Extreme tab