Song name
# A B C D E F G H I J K L M N O P Q R S T U V W X Y Z

Misc Unsigned Bands - Ramrods - Ghost Riders In The Sky tab

Ghost Riders:Ramrods.
#8 in UK and #30 on BB Hot 100 in
1961 on AMY Records.


#1.
-------------------------------------------------------------|
-------------------------------------------------------------|
-------------------------------------------------------------|
--------------------------------------------------0-2-2-0-2--|
---0-0-0--2-3-3-3-0----------------0-0-0-2-3-3-3-------------|
--0------------------3-3-3-0-3--0----------------------------|

#2.
----------------------------------------------------------------|
----------------------------------------------------------------|
--------2-2-0-2-------------------------------------------------|
--2-2-2---------2-2-0-2-2-2-------------------------------------|
------------------------------3-0------------3-3-3-0-3-0------0-|
----------------------------------0-1-1-1-1---------------3-3---|

#3.
-------------------------------------------------------------|
-------------------------------------------------------------|
-------------------------------------------------------------|
--------------------------------------------------0-2-2-0-2--|
---0-0-0--2-3-3-3-0----------------0-0-0-2-3-3-3-------------|
--0------------------3-3-3-0-3--0----------------------------|

#4.
----------------------------------------------------------------|
----------------------------------------------------------------|
--------2-2-0-2-------------------------------------------------|
--2-2-2---------2-2-0-2-2-2-------------------------------------|
------------------------------3-0------------3-3-3-0-3-0------0-|
----------------------------------0-1-1-1-1---------------3-3---|


BREAK:
----------------------------------------------------------------|
----------------------------------------------------------------|
--------0--2-2-2------------------------------------------------|
--2-2-2------------2--------------------------------------------|
------------------------------------3---3-3-3-0------0----------|
-----------------------0-0-0-1-1-1---------------3-3------------|

#3.

-------------------------------------------------------------|
-------------------------------------------------------------|
-------------------------------------------------------------|
--------------------------------------------------0-2-2-0-2--|
---0-0-0--2-3-3-3-0----------------0-0-0-2-3-3-3-------------|
--0------------------3-3-3-0-3--0----------------------------|


#4.
----------------------------------------------------------------|
----------------------------------------------------------------|
--------2-2-0-2-------------------------------------------------|
--2-2-2---------2-2-0-2-2-2-------------------------------------|
------------------------------3-0------------3-3-3-0-3-0------0-|
----------------------------------0-1-1-1-1---------------3-3---|

(CHANGES TO Cminor..)


#5. Am Bbm B Cm........Cm D# Cm G# Cm..Bbm

    C Am F Am


OUTRO: (x4)

------0---0-3-5-3-0------------|
----1--------------------------|
--2----------------------------|
-------------------------------|
-------------------------------|
-------------------------------|



A sixties smash from Kraziekhat.
Tap to rate this tab
 
# A B C D E F G H I J K L M N O P Q R S T U V W X Y Z