Song name
# A B C D E F G H I J K L M N O P Q R S T U V W X Y Z

Misc Unsigned Bands - Shadow Of A Doubt - Bloody Mary tab

|---------------------------------|
|---------------------------------|
|---------------------------------|
|----------10---------------------|
|----7-8-------87---78--7---------|
|-00--------------0----0----------| 
                                   x2
|---------------------------------|
|---------------------------------|
|---------------------------------|
|----------10---------------------|
|----7-8-------87---78--10--------|
|-00--------------0----0----------|

|---------------------------------|
|---------------------------------|
|---------------------------------|
|----------10---------------------|
|----7-8-------87---78----7-------|
|-00--------------0----0----------|
                                   x2
|---------------------------------|
|---------------------------------|
|---------------------------------|
|----------10-------------7-------|
|----7-8-------87---78------------|
|-00--------------0----0----------|

|---------------------------------|
|---------------------------------|
|---------------------------------|
|0-------0---------0--------0-----|
|0-------0---------0--------0-----|
|0-------0---------0--------0-----|

|---------------------------------|
|---------------------------------|
|-----5(DiveBomb)-----------------|
|---------------------------------|
|---------------------------------|
|---------------------------------|

|---------------------------------|
|----------------------------5----|
|----------------------------8----|x6
|---------------------------------|
|0000000-00-000-000000-00---------|
|0000000-00-000-000000-00---------|

|---------------------------------|
|---------------------------------|
|---------------------------------|
|----------10---------------------|
|----7-8-------87---78--7---------|
|-00--------------0----0----------| 
                                   x2
|---------------------------------|
|---------------------------------|
|---------------------------------|
|----------10---------------------|
|----7-8-------87---78--10--------|
|-00--------------0----0----------|

|---------------------------------|
|---------------------------------|
|---------------------------------|
|----------10---------------------|
|----7-8-------87---78----7-------|
|-00--------------0----0----------|
                                   x2
|---------------------------------|
|---------------------------------|
|---------------------------------|
|----------10-------------7-------|
|----7-8-------87---78------------|
|-00--------------0----0----------|

|---------------------------------|
|---------------------------------|
|---------------------------------|
|0-------0---------0--------0-----|
|0-------0---------0--------0-----|
|0-------0---------0--------0-----|

|---------------------------------|
|---------------------------------|
|-----5(DiveBomb)-----------------|
|---------------------------------|
|---------------------------------|
|---------------------------------|

|---------------------------------|
|---------------------------------|
|---------------------------------|x6
|---------------------------------|
|0000000-00-000-000000-00-----1---|
|0000000-00-000-000000-00-----1---|

|---------------------------------|
|---------------------------------|
|---------------------------------|
|---------------------------------|
|---------------------------------|
|--------<<<<<
                        
                    
Tap to rate this tab
 
# A B C D E F G H I J K L M N O P Q R S T U V W X Y Z