Song name
# A B C D E F G H I J K L M N O P Q R S T U V W X Y Z

Misc Unsigned Bands - Go Ahead - Supposedly tab

Go Ahead - Supposedly  

(www.mp3.com/go_ahead)for information and free mp3's for this underground band

By: Julian 

As far as I know there are no tabs for this great underground band anywhere on
the net.  This tab is complete and accurate and my interpretation of the artist's
song.  Questions, comments, suggestions, and criticism are welcome 

Please rate this tab...enjoy =)

Them screwing around before the intro(x1) - distortion

    A E A#   A    Ab
e-------------------|
B-------------------|
G-------------------|
D-------8---7-7---6-|
A-----7-----7-7---6-|
E---5-------5-5---4-|

Intro(x6) - clean <00:04 - 00:39>
    
    E  E   Eb Db E G#  A  E  E  Db E G# Db    D#  F# E Eb
e--------------------------12-----------------------------|
B-----------------9---10------------9---------------------|
G---9-999--8----9---9----9--------9---------------11-9-8--|
D------------11---------------/11-----11-11/13-13---------|
A---------------------------------------------------------|
E---------------------------------------------------------|

Chorus distortion <00:40 - 01:11>
     
     E     E    G#   C#  A[x8]                  
e------------------------------|
B------------------------------|  
G---9-9-x-9-9-------6-6--------|  var.1
D---9-9-x-9-9--6-6--6-6--7-----|
A---7-7-x-7-7--6-6--4-4--7-----|
E--------------4-4-------5-----|

     E     E    G#   C#  A[x6]                  A Ab
e---------------------------------------------------------|
B---------------------------------------------------------|
G---9-9-x-9-9-------6-6-----------------------------------|  var.2
D---9-9-x-9-9--6-6--6-6--7----------------------7\6-------|
A---7-7-x-7-7--6-6--4-4--7-[A chord 6x then]----7\6-------|
E--------------4-4-------5----------------------5\4-------|

Alternate var.1 and var.2 three times before the verse starts

Verse begins with the bass line alone before the guitar comes in to join it

VERSE 1 

"I want my reason back..." 

Bass Line - starts at <01:12>    

   A  Ab   E C# A C#  G# B F# E
G-----------------------------------|
D-----------------------6----4--2---|
A----------7-7774p0-4-44--2-2-------|
E--5-555-4-----------------------4--|
                                 Ab

Guitar comes in at <01:22>

"You took my feelin' away..."
  Ab E A  E B  E A  E
e---------------------|
B--9---10---12---10---|
G----9----9----9----9-|
D---------------------|
A---------------------|
E---------------------|

"That's the way it's supposed to be..." at <01:33>
     A       B
e--------------|
B--------------|
G--2-2-2-x-x-4-|
D--2-2-2-x-x-4-|
A--0-0-0-x-x-2-|
E--x-x-x-x-x-x-|

CHORUS distortion <01:35-01:56>

"So won't ya take the time after the show..."

     E     E    G#   C#  A[x8]                  
e------------------------------|
B------------------------------|  
G---9-9-x-9-9-------6-6--------|  var.1
D---9-9-x-9-9--6-6--6-6--7-----|
A---7-7-x-7-7--6-6--4-4--7-----|
E--------------4-4-------5-----|

     E     E    G#   C#  A[x6]                  A Ab
e---------------------------------------------------------|
B---------------------------------------------------------|
G---9-9-x-9-9-------6-6-----------------------------------|  var.2
D---9-9-x-9-9--6-6--6-6--7----------------------7\6-------|
A---7-7-x-7-7--6-6--4-4--7-[A chord 6x then]----7\6-------|
E--------------4-4-------5----------------------5\4-------|

VERSE 2  

"I took your answers back..."

Bass Line - starts at <01:57>    

   A  Ab   E C# A C#  G# B F# E
G-----------------------------------|
D-----------------------6----4--2---|
A----------7-7774p0-4-44--2-2-------|
E--5-555-4-----------------------4--|
                                 Ab

Guitar comes in at <02:07>

"You took my feelin' away..."
 
  Ab E A  E B  E A  E
e---------------------|
B--9---10---12---10---|
G----9----9----9----9-|
D---------------------|
A---------------------|
E---------------------|

"But that's the way it's supposed to be..." at <02:17>
     A       B
e--------------|
B--------------|
G--2-2-2-x-x-4-|
D--2-2-2-x-x-4-|
A--0-0-0-x-x-2-|
E--x-x-x-x-x-x-|

CHORUS distortion <2:20-02:40>

"So won't ya take the time after the show..."

     E     E    G#   C#  A[x8]                  
e------------------------------|
B------------------------------|  
G---9-9-x-9-9-------6-6--------|  var.1
D---9-9-x-9-9--6-6--6-6--7-----|
A---7-7-x-7-7--6-6--4-4--7-----|
E--------------4-4-------5-----|

     E     E    G#   C#  A[x6]                  A Ab
e---------------------------------------------------------|
B---------------------------------------------------------|
G---9-9-x-9-9-------6-6-----------------------------------|  var.2
D---9-9-x-9-9--6-6--6-6--7----------------------7\6-------|
A---7-7-x-7-7--6-6--4-4--7-[A chord 6x then]----7\6-------|
E--------------4-4-------5----------------------5\4-------|

BRIDGE <02:41-03:18>

Guitar 1 beginning at <02:40>
   A[x4]    A[x4]    A[x2]   Em[x4]  Em[x4]    Em[x2]  C#[x4]  
e--------------------------------------------------------------|
B--------------------------------------------------------------|
G--------------------------------------------------------6-----|
D---7----x---7----x---7--------2---x----2---x----2-------6---x-|
A---7----x---7----x---7--------2---x----2---x----2-------4---x-|
E---5----x---5----x---5--------0---x----0---x----0-------x---x-|

   C#[x4]  C#[x2]  B[x4] B[x4]  B[x2] 
e--------------------------------------|
B--------------------------------------|
G----6--------4------4-----4------4~---|
D----6----x---4---x--4--x--4---x--4~---|
A----4----x---6---x--2--x--2---x--2~---|
E----x----x---x---x--x--x--x---x--x----|

Guitar 2 <03:00-03:19>
   Ab A Ab  E
e-----------12v~--|
B---9h10p9--------|
G-----------------|
D-----------------|
A-----------------|
E-----------------|

CHORUS distortion <03:19-03:50>

"So won't ya take the time after the show..."

     E     E    G#   C#  A[x8]                  
e------------------------------|
B------------------------------|  
G---9-9-x-9-9-------6-6--------|  var.1
D---9-9-x-9-9--6-6--6-6--7-----|
A---7-7-x-7-7--6-6--4-4--7-----|
E--------------4-4-------5-----|

     E     E    G#   C#  A[x6]                  A Ab
e---------------------------------------------------------|
B---------------------------------------------------------|
G---9-9-x-9-9-------6-6-----------------------------------|  var.2
D---9-9-x-9-9--6-6--6-6--7----------------------7\6v~-----|
A---7-7-x-7-7--6-6--4-4--7-[A chord 6x then]----7\6v~-----|
E--------------4-4-------5----------------------5\4v~-----|

Let the Ab ring out at the end

Any questions/comments/corrections etc.  e-mail me at Jay9125@attbi.net
Tap to rate this tab
# A B C D E F G H I J K L M N O P Q R S T U V W X Y Z