Song name
# A B C D E F G H I J K L M N O P Q R S T U V W X Y Z

Misc Unsigned Bands - Kings Of The City - Makes Me Worse tab

Chords used
     Am      Gmaj       Dm      Fmaj
E|---0-------3-------1-------1-|
B|---1-------0-------3-------1-|
G|---2-------0-------2-------2-|
D|---2-------0-------0-------3-|
A|---0-------2-------x-------x-|
E|---0-------3-------x-------x-|

2nd verse
E|--------------------/---------|
B|-------------------3/---------|
G|---2---------------2/---------|
D|---2-------5-------0/12-----3-|
A|---0-------5--------/12-----3-|
E|-----------3--------/10-----1-|


Hook

E|----------------------------------------------------|
B|----------------------------------------------------|
G|--0/s/16s18-16---14s16-14---12s14s12s14b15r14b15r14-|
D|----------------------------------------------------|
A|----------------------------------------------------|
E|----------------------------------------------------|

Top Layer acoustic
E|---0-------3-------1-------1-|
B|---1-------0-------3-------1-|
G|---2-------0-------2-------2-|
D|---2-------0-------0-------3-|
A|---0-------2-------x-------x-|
E|---0-------3-------x-------x-|

2nd Layer/Guitar2 Notes in ()'s are added in 2nd verse. Moderate Distortion/Gain
E|--------------------/-----------|
B|-------------------3/-----------|
G|---2---------------2/-----------|
D|---2-------5------(0)-/12-----3-|
A|---(0)-----5----------/12-----3-|
E|----------(3)--------/(10)------|(1)

E|------------------------------------------------------------------------------|
B|-5/s/10s12s13s15s13s12~~~~/s10s12s13s15s13s12s13~~~~/s10s12s13s15s13s15s18~~~~|
G|------------------------------------------------------------------------------|
D|------------------------------------------------------------------------------|
A|------------------------------------------------------------------------------|
E|------------------------------------------------------------------------------|
Tap to rate this tab
# A B C D E F G H I J K L M N O P Q R S T U V W X Y Z