Song name
# A B C D E F G H I J K L M N O P Q R S T U V W X Y Z

Misc Unsigned Bands - Steven Georgiou - The Eighteenth Gift chords

Highlighted       Show chord diagrams
Song: The Eighteenth Gift
Artist: Steven T. Georgiou (ME again XD)
Note: please use the chords below as the chords given
example. C/D will be the formation of the tab on the left,
and C9 will be the formation of the tab on the right.

C/D, C9

(TAB) C/D                      C9
e|--------------       -----------------|
B|-----3--------       ------3--3--3----|
G|---0--0-------       ----0--0--0--0---|
D|--4-4--4------       ---0-0--0--0--0--|
A|-5------------ (2x)  --3--------------|
E|--------------       -----------------|


Intro

Youíre so amazing, youíve been a good friend to us all,

In trouble times, itís you who were seeking, to make us all,

Comfortable, itís your voice, you are so comforting, it makes us fall,

Asleep, yes, thatís why youíre the best friend of all.

Chorus: G D C9 D
My best friend youíre so amazing, sweet and youíre
Magnificent, so wonderful you are, oh yes you are a gift from God

Instrumental

Donít you worry when you are in trouble, you can call,

Anyone of us, we will be available, to answer your call,

No matter how long, no matter how busy, we are all,

Just for you, we will always be there for you.

Chorus 2:
Angel from God, you will always be there for us,
A great listener, oh best friend you are a gift from God for us

Instrumental

(Repeat Chorus 2 then instrumental)

8th Composition finished :)
K8th Happy birthday :)


(TAB)
e|--------------       -----------------|
B|-----3--------       ------3--3--3----|
G|---0--0-------       ----0--0--0--0---|
D|--4-4--4------       ---0-0--0--0--0--|
A|-5------------ (2x)  --3--------------|
E|--------------       -----------------|
Tap to rate this tab
# A B C D E F G H I J K L M N O P Q R S T U V W X Y Z