Song name
# A B C D E F G H I J K L M N O P Q R S T U V W X Y Z

Misc Unsigned Bands - Zither - Tale To The Fool tab

Band Zither.. URL:www.Zither.cjb.net Philippines


Title : "Tale to the Fool"
Artist : ZITHER
Album : Zitherology
Transcribed by : David Gomez

INTRO/VERSE 1
E---------------|-------------|------------|-------3--|
B---------------|--------1----|----3---1---|---0h1----|
G--4h5p4----4---|---------2---|-----0---0--|----------|
D--2-----2---2--|----3-----3--|------2---2-|----------|
A--0------0---0-|---3-3-----3-|--2---------|--2-------|
E---------------|--1----------|-3----------|-0--------|

CHORUS
E-------------------------|
B-------------------------|
G-------------------------|
D-7777--3333--5555--9999--|
A-7777--3333--3333--7777--|
E-5555--1111--------------|

VERSE2
CHORUS
LEAD
VERSE3
CHORUS4x

-end-
Tap to rate this tab
# A B C D E F G H I J K L M N O P Q R S T U V W X Y Z