Song name
# A B C D E F G H I J K L M N O P Q R S T U V W X Y Z

Misc Unsigned Bands - Eccowave - Smooth tab

Eccowave - Smooth                            
                    A new local Band from Tempe Arizona in the USA
                         They are working on a new site i will 
                           provide it in the next tab i create

E|---0--7--4--0--5--4--0---x4-
B|----------------------------
G|----------------------------
D|----------------------------
A|----------------------------
E|----------------------------



E|----------------------------------------------------
B|----------------------------------------------------
G|---9------------------9-----------------------------
D|---9--9--7------------9--9--11----------------------     whole thing 2x
A|---7--9--7--let ring--7--9--11--let ring------------
E|------7--5---------------7--9-----------------------

then back to begining
Tap to rate this tab
# A B C D E F G H I J K L M N O P Q R S T U V W X Y Z