Song name
# A B C D E F G H I J K L M N O P Q R S T U V W X Y Z

Misc Unsigned Bands - Tom Tykwer - Cloud Atlas Sextet tab

Cloud Atlas Sextet guitar tabs (Begis version, tabs by Begis, original composition Tom Tykwer)

http://www.youtube.com/watch?v=P22BHEunC1I

e------------------3-----3-----------------3-----3-----------------3-----3----------------------|
B------1-------------------5---0-------------------5---1-----------------------1----------------|
G0---0---0-------0---0-------0---0-------0---0-------0---0-------0---0-----2-----2-------2---2--|
D2-2-------2---2-------2-----------2---2-------2-----------2---2-------2-----3-----3---3---0----|
A3-----------0-----------------------------------0----------------------------------------------|
E------------------------0-----------3-----------------------0-----------1-----------1----------|
-C-----------C/A---------Em----------Em/G--------Am----------Am/E--------F-----------F(slowdown)|

e------------------3-----3-----------------3-----3-----------------3-----3-------------------3s5|
B------1-------------------5---0-------------------5---1-----------------------1----------------|
G0---0---0-------0---0-------0---0-------0---0-------0---0-------0---0-----2-----2-------2------|
D2-2-------2---2-------2-----------2---2-------2-----------2---2-------2-----3-----3---3---0----|
A3-----------0-----------------------------------0----------------------------------------------|
E------------------------0-----------3-----------------------0-----------1-----------1----------|
-C-----------C/A---------Em----------Em/G--------Am----------Am/E--------F-----------F(slowdown)|

e------10-----8-----7----------------8-----7-----------5-----10----8----------------------------|
B----8---8-----8-----8---------8---------------------5---5-----5-----5---------10---------------|
G--0-------0-----0-----0-----9---9-----9-----9-----5-------5-----5-----5-----10-----------------|
D--------------------------9-------9-----9-----9---------------------------10-------------------|
A------------------------------------------------0-----------------------8----------------------|
E8-----------------------0----------------------------------------------------------------------|
-C-----------------------Em----------------------Am----------------------F----------------------|

e-----------------------------------------------------------------------------------------------|
B------3-----1-----0-----------------1-----0-----------------3-----1-----------0-----------3----|
G----0---0-----0-----0---------0---------------------2-----2---2-----2-------0---0-------2------|
D--2-------2-----2-----2-----2---2-----2-----2-----2-----2-------2-----2---0-------0---0--------|
A3-------------------------2-------2-----2-----2-0-----0----------------------------------------|
E------------------------0-----------------------------------------------3-----------2----------|
-C-----------------------Em----------------------Am----------------------G-----------D(slowdown)|


e------------------3-----3-----------------3-----3-----------------3-----3----------------------|
B------1-----3-----------------0-----------------------1-----------------------1----------------|
G----0---0-----0-----0-----0-----0-------0---0-----0-----0-------0---0-----2-----2-------2---2--|
D--2-------2-----2-----2-----2-----2---2-------2-----2-----2---2-------2-----3-----3---3---3----|
A3-----------------------------------------------0-----------0----------------------------------|
E------------------------0-----------0-----------------------------------1-----------1----------|
-C-----------C-----------Em----------------------Am----------------------F-----------F(slowdown)|

e------------------3-----3-----------------3-----3-----------------3-----3----------------------|
B------1-----3-----------------0-----------------------1-----------------------1----------------|
G----0---0-----0-----0-----0-----0-------0---0-----0-----0-------0---0-----2-----2-------2---2--|
D--2-------2-----2-----2-----2-----2---2-------2-----2-----2---2-------2-----3-----3---3---3----|
A3-----------------------------------------------0-----------0----------------------------------|
E------------------------0-----------0-----------------------------------1-----------1----------|
-C-----------------------Em----------------------Am----------------------F-----------F(slowdown)|

e-----------------------------------------------------------------------------------------------|
B------3-----1-----0-----------------1-----0-----------------------------------10---------------|
G----0---0-----0-----0---------0-----------------------5-----7-----5---------10-----------------|
D--2-------2-----2-----2-----2---2-----2-----2-------5---5-----5-----5-----10-------------------|
A3-------------------------2-------2-----2-----2---7-------7-----7-----7-8----------------------|
E------------------------0-----------------------5----------------------------------------------|
-C-----------------------Em----------------------Am----------------------F(slowdown)------------|

e----------8-------|
B--------8---------|
G------9-----------|
D----10------------|
A--10--------------|
E8-----------------|
-C(strum)

S - Slide
Tap to rate this tab
# A B C D E F G H I J K L M N O P Q R S T U V W X Y Z