Song name
# A B C D E F G H I J K L M N O P Q R S T U V W X Y Z

Misc Unsigned Bands - Known To Be Lethal - For The Lulz tab

This is my first tab, got that part using my ears only. Hope you enjoy!
Tuning : E Standard.

Intro (x2)
E--5s6x6-6-9-6---6-6-4-----------------------|
B--6s7x7-6-6-7---7-7-4-----------------------|
G--5s6x6-6-6-8---8-8-6-----------------------|
D--------------------------------------------|
A--------------------------------------------|
E--------------------------------------------|

And then it goes on with :
E--5s6-6-6-6--6-5s6-6-6-5s-6-6-6-------------|
B--6s7-7-7-7--7-6s7-7-7-6s-7-7-7-------------|
G--5s6-6-6-6--6-5s6-6-6-5s-6-6-6-------------|
D--------------------------------------------|
A--------------------------------------------|
E--------------------------------------------|


Hope it's accurate, not that hard to pull off.
Enjoy!
Tap to rate this tab
# A B C D E F G H I J K L M N O P Q R S T U V W X Y Z