Song name
# A B C D E F G H I J K L M N O P Q R S T U V W X Y Z

Misc Unsigned Bands - Oscar Isaac - Never Had tab

-------------------------------------------------------------------------------
                             Never Had  Oscar Isaac
-------------------------------------------------------------------------------
Tabbed by: ThePoeWalker
E-mail:Benjaminwallker27@gmail.com

Tuning: Standard Tuning Capo 6 fret

This is not exactly correct. It is, however, a great place to start if you
 are trying to play it exactly how Oscar Isaac plays it. This is just my take
 on the song. There is a lot more strumming and bass notes played, but this
 is the foundation of the rest not shown.

Intro

   F                  C                   G          Am    G
e|----0---3---0----------0---3---0----------------------------------------------|
B|----1----------1-------1----------1----------3---------1p0--------------------|
G|----2------------------0---------------------------0h2------------------------|
D|-3---------------------2-------------------0-------0h2------------------------|
A|--------------------3------------------------------0--------------------------|
E|----------------------------------------3-------------------------------------|



  F               C              G
e|-----1--3--0--------0--------------------------------------------------------|
B|-----------------------3------------0----0----1----3-------------------------|
G|--2---------------------------------0----0----0----0-------------------------|
D|-3---------------------------------------------------------------------------|
A|----------------3------------------------------------------------------------|
E|-------------------------------3-3----3----3-----3---------------------------|


Verse

He adds various hammer ons and offs during the strumming that differs a lot. Its best 
to just pick them out by yourself.

*Beats

      4*   4*   4*   2*   2*  6*  4*  4*
      F    C    G    Am   G   F   C   G
e|----0----0----0----0----3---0---0---3-------------------------------------|
B|----1----1----3----1----3---1---1---3-------------------------------------|
G|----2----0----0----2----0---2---0---0-------------------------------------|
D|----3----2----0----2----0---3---2---0-------------------------------------|
A|---------3----2----0----2-------3---2-------------------------------------|
E|--------------3---------3-----------3-------------------------------------|



************************************

| /   slide up
| \   slide down
| h   hammer-on
| p   pull-off
| ~   vibrato
| +   harmonic
| x   Mute note
| b   Bend
| pb  Pre-bend
| br  Bend release
| pbr Pre-bend release
| brb Bend release bend

************************************
Tap to rate this tab
# A B C D E F G H I J K L M N O P Q R S T U V W X Y Z