Song name
# A B C D E F G H I J K L M N O P Q R S T U V W X Y Z

Misc Unsigned Bands - Carimi - Ou Pati tab

Heya guys :) this is my first tab ever. I'm no expert, I've only been playing for a year 
and I'm self teaching so be indulgent. Anyway, I didn't see a tab of this song so I 
used a video to figure out what was going on in that song and tabbed it the best I could.

Standard Tuning

(Verse & Chorus)

Chords: G - D - Em - C

  G       D           Em    C
E|3-3-3---x-----------x-x---x-(6)-x|
B|3-3-3---7--------7--7h8---5-5---5|
G|4-4-4---7------7----7-7---5-5---5|
D|5-5-5---7--7/9------7h9---5-5---5|
A|5-5-5---5-----------7-7---3-3---3|
E|3-3-3---x-----------x-x---x-x---x|

Alternate Em |-7-|
             |-8-|
             |-9-|
             |-9-|
             |-x-|
             |-x-|

(Bridge)

Chords: G - D - C - D - G - D

  G       D                 C         D   G   D
E|3-3-3---x-x---8-----------x-(6)-x---x---3---x|
B|3-3-3---7-8---8-----------5--5--5---7---3---7|
G|4-4-4---7-7---9-----------5--5--5---7---4---7|
D|5-5-5---7-7---10----------5--5--5---7---5---7|
A|5-5-5---5-5---10----2--3--3--3--3---5---5---5|
E|3-3-3---x-x---x---5-------x--x--x---x---3---x|

(Fill) X2
                        D
E|----------------------x|
B|----------------------7|
G|-0-0-12-0-0-11-0-0-9--7|
D|----------------------7|
A|----------------------5|
E|----------------------x|

                        C
E|----------------------x|
B|----------------------5|
G|-0-0-12-0-0-11-0-0-9--5|
D|----------------------5|
A|----------------------3|
E|----------------------x|

E|-------------------------------------3|
B|-------------------------------------3|
G|-0-0-2/4---0-0-2/4---0-0-2/4-0-0---0-4|
D|---------------------------------2---5|
A|-------------------------------------5|
E|-------------------------------------3|


('Solo')

E|-------------------x------------------------|
B|-----------0-------x------------------------|
G|-0-0-0-2/4-- 2-2---9------------------------|
D|-------------------9---0-0-0-5-4-2h4p2-0----|
A|-------------------7---------------------1--|
E|-------------------x-----------------------5|

Back to the fill 2 times then the 'solo' 3 times

One last part is missing

(Bridge 2)

E|-----------------------------------------------------------|
B|-----------------------------------------------------------|
G|-12-12-12-12---14-14-14-14---16-16-16-16---17-17-17-17---19|
D|-----------------------------------------------------------|
A|-----------------------------------------------------------|
E|-----------------------------------------------------------|

And then it goes back to the verse.

I hope it helped :) Thanks for checking.
Tap to rate this tab
# A B C D E F G H I J K L M N O P Q R S T U V W X Y Z