Song name
# A B C D E F G H I J K L M N O P Q R S T U V W X Y Z

Misc Unsigned Bands - Glass Giraffes - Better Alone tab

-------------------------------------------------------------------------------
                             Glass Giraffes-Better Alone
-------------------------------------------------------------------------------
Tabbed by:SebadohJr
E-mail:dinosauresq@hotmail.com

Tuning: Standard, played with heavy reverb and delay 
   Main riff/verse 
e|--0-0-0-0--0-0-0-----0-0-0-0--0-0-0------|
B|-9-9-9-9--7-7-9-----7-7-7-7--5-5-7-------|
G|----------------9\-----------------6/----|
D|-----------------------------------------|
A|-----------------------------------------|
E|-----------------------------------------|
   Verse
e|-----------------------------------------------|
B|-----------------------------------------------|
G|------------------------------11111111111111---|
D|------------------------------11111111111111---|
A|------------------------------9-9-9-9-9-9-9----|
E|-2-2-2-2-2-4444-555-0-0-0-0-0-9-9-9-9-9-9-9----|
  verse fill (1:39)
e|-----------------------------------------|
B|-----------------------------------------|
G|-444444444444-4421-2211-2211-------------|
D|-----------------------------224444444---|
A|-----------------------------------------|
E|-----------------------------------------|
  solo (2:11)
e|--9--9--9--9---12--12--11--11---9--9--9--9---7-7-7-7---|
B|---12-12-12-12---12--12--12--12--12-12-12-12--7-7-7-7--|
G|-------------------------------------------------------|
D|-------------------------------------------------------|
A|-------------------------------------------------------|
E|-------------------------------------------------------|


e|--9--9--9--9---12--12--11--11---9--9--9--9----19--19--19--19--|
B|---12-12-12-12---12--12--12--12--12-12-12--/14--14--14--14----|
G|--------------------------------------------------------------|
D|--------------------------------------------------------------|
A|--------------------------------------------------------------|
E|--------------------------------------------------------------|

e|-19--19--19--19---16--16--17--17--14--14--14--14--17--17--16--16----|
B|---14--14--14--14---14--14--14--14--14--14--14--14--14--14--14--14--|
G|--------------------------------------------------------------------|x2
D|--------------------------------------------------------------------|
A|--------------------------------------------------------------------|
E|--------------------------------------------------------------------|


************************************
Tap to rate this tab
# A B C D E F G H I J K L M N O P Q R S T U V W X Y Z