Song name
# A B C D E F G H I J K L M N O P Q R S T U V W X Y Z

Misc Unsigned Bands - Sebastian Ingrosso Tommy Trash - Reload tab

Intro:

|--------------------------------------------------| x36
|-10-12-13-10-12-13--------------------------------| 
|--------------------------------------------------|
|--------------------------------------------------|
|--------------------------------------------------|
|--------------------------------------------------|

Solo 1:

|--------------------------------------------------|x3
|-10-12-13-10-12-13-10-12-13-12-13-10--------------|
|--------------------------------------------------|
|--------------------------------------------------|
|--------------------------------------------------|
|--------------------------------------------------|

|--------------------------------------------------|
|-12-12-13-10-12-13-10-12-13-12-13-10--------------|
|--------------------------------------------------|
|--------------------------------------------------|
|--------------------------------------------------|
|--------------------------------------------------|

|--------------------------------------------------|
|-10-13-15-10-13-15-10-13-15-13-15-10--------------|
|--------------------------------------------------|
|--------------------------------------------------|
|--------------------------------------------------|
|--------------------------------------------------|

|-15-12-10-8-15-12-10-8-8-10-12-15-----------------|
|--------------------------------------------------|
|--------------------------------------------------|
|--------------------------------------------------|
|--------------------------------------------------|
|--------------------------------------------------|

|--------------------------------------------------|x14
|-10-10-10-10-10-----------------------------------|
|--------------------------------------------------|
|--------------------------------------------------|
|--------------------------------------------------|
|--------------------------------------------------|

|-15-12-10-8-15-12-10-8-8-10-12-15-----------------|
|--------------------------------------------------|
|--------------------------------------------------|
|--------------------------------------------------|
|--------------------------------------------------|
|--------------------------------------------------|

And again Solo 1 with a little change...

|--------------------------------------------------|x2
|-10-12-13-10-12-13-10-12-13-12-13-10--------------|
|--------------------------------------------------|
|--------------------------------------------------|
|--------------------------------------------------|
|--------------------------------------------------|

|--------------------------------------------------|
|-12-12-13-10-12-13-10-12-13-12-13-10--------------|
|--------------------------------------------------|
|--------------------------------------------------|
|--------------------------------------------------|
|--------------------------------------------------|

|--------------------------------------------------|
|-10-13-15-10-13-15-10-13-15-13-15-10--------------|
|--------------------------------------------------|
|--------------------------------------------------|
|--------------------------------------------------|
|--------------------------------------------------|

|-15-12-10-8-15-12-10-8-8-10-12-15-----------------|
|--------------------------------------------------|
|--------------------------------------------------|
|--------------------------------------------------|
|--------------------------------------------------|
|--------------------------------------------------|
~~~~~~~~~~~~~~~~~~~~~~~~~~~~~~~~~~~~~~~~~~~~~~~~~~~~~~~~~~~
|--------------------------------------------------|
|-10-12-13-10-12-13-10-12-13-12-13-10--------------|
|--------------------------------------------------|
|--------------------------------------------------|
|--------------------------------------------------|
|--------------------------------------------------|

|--------------------------------------------------|
|-12-12-13-10-12-13-10-12-13-12-13-10--------------|
|--------------------------------------------------|
|--------------------------------------------------|
|--------------------------------------------------|
|--------------------------------------------------|

|--------------------------------------------------|
|-10-13-15-10-13-15-10-13-15-13-15-10--------------|
|--------------------------------------------------|
|--------------------------------------------------|
|--------------------------------------------------|
|--------------------------------------------------|

|-15-12-10-8-15-12-10-8-8-10-12\-------------------|<
                        
                    
Tap to rate this tab
# A B C D E F G H I J K L M N O P Q R S T U V W X Y Z