Song name
# A B C D E F G H I J K L M N O P Q R S T U V W X Y Z

Misc Unsigned Bands - Lovehunters - Angel In The Night tab

LOVEHUNTERS - Angel In The Night (solo)



Key:

^  - bend
^^ - full bend
h  - hammer on
p  - pull off
r  - release bend
/  - slide down
\  - slide up
~  - vibrato
() - finger tap



Cadd9
Angel...


     G                   Cadd9                    G
e|----------------------------10-----------------------------10--------|
B|---------------------8-10^^----r-8-10^^---------8~----10^^----r-8----|
G|-----7-7---7~-----/9-------------------------/9----------------------|
D|--/9-----9-----------------------------------------------------------|
A|---------------------------------------------------------------------|
E|---------------------------------------------------------------------|



                  Cadd9                 Am
e|-------10-----------------------------10-10-10-8-7-8-7----10-8-7-8-7---|
B|--10^^----r--8---8~---------------8--------------------10--------------|
G|---------------9--------------7-9--------------------------------------|
D|---------------------------/9------------------------------------------|
A|-----------------------------------------------------------------------|
E|-----------------------------------------------------------------------|



       D                                 G                         Cadd9
e|----------10------10------10------10----------------------10------------|
B|--10-10^^----10^^----10^^----10^^----r-8~----------8-10^^----r-8-10^^---|
G|------------------------------------------------/9----------------------|
D|------------------------------------------------------------------------|
A|------------------------------------------------------------------------|
E|------------------------------------------------------------------------|



                                G                                  Cadd9
e|-------15----------------------------------------------------------------|
B|--15^^----r--15-13-15---15^^r-15~------15-13-12-13p12----12--------------|
G|---------------------------------------X--------------14----14-12-14^^---|
D|---------------------------------------X---------------------------------|
A|-------------------------------------------------------------------------|
E|-------------------------------------------------------------------------|



                                        Em
e|--------------------------------------------------|
B|--13p12----12-------------------------------------|
G|--------14----14-12-14p12----12-------------------|
D|--------------------------14----14-12-14~---------|
A|--------------------------------------------------|
E|--------------------------------------------------|



Em
I need to hold you...




Guitar tabs by rizalwahap
Tap to rate this tab
# A B C D E F G H I J K L M N O P Q R S T U V W X Y Z