Song name
# A B C D E F G H I J K L M N O P Q R S T U V W X Y Z

Misc Unsigned Bands - Lovehunters - Ku Ukir Namamu tab

LOVEHUNTERS - Ku Ukir Namamu (intro and solo)



Key:

^  - bend
^^ - full bend
h  - hammer on
p  - pull off
r  - release bend
/  - slide down
\  - slide up
~  - vibrato
() - finger tap



(Intro:)


   |---------------------Volume Control---------------------|
   Dm                Bb              C               F
e|------------------------------------------------------------------|--|
B|------------------------------------------------------------------|--|
G|--7-------9----10--10--------------5-------7----9--9--------------|--|
D|-----------------------8--8---------------------------7--7\-------|--|
A|------------------------------------------------------------------|--|
E|------------------------------------------------------------------|--|



     Bb           C            F                                Bb
e|-------------10-12----13--15-13^^r--13-13---------------15-15h17-17---|
B|--/11-----13-----------------------------------15-17-18---------------|
G|----------------------------------------------------------------------|
D|----------------------------------------------------------------------|
A|----------------------------------------------------------------------|
E|----------------------------------------------------------------------|


                    A                  Dm
e|--18^^r--17-15-15h17-17----------------------------------------|
B|------------------------------14--14h15~-----------------------|
G|---------------------------------------------------------------|
D|---------------------------------------------------------------|
A|---------------------------------------------------------------|
E|---------------------------------------------------------------|


                 Gm
Ku terpaut sejak pertemuan itu...




(Solo:)



   A                  Dm
Pergi dan takkan kembali...



                                    Gm                  C            F
e|-------------------------------------------------------------------------|
B|----------------------------10/13-11---10h11p10----10-11-----13^^r-13----|
G|--------------------9-10-12---------------------12-----------------------|
D|--------------10-12------------------------------------------------------|
A|-----10-12-13------------------------------------------------------------|
E|--10---------------------------------------------------------------------|



               Dm         Gm                C                         F
e|--------------------------------------------------------------------------|
B|--11-10-11-11/13----10--13-11-10-11----10---------------------------------|
G|------------------------------------12----10-12-9-10----9-----------------|
D|-----------------------------------------------------12---10/12-10-8-7----|
A|--------------------------------------------------------------------------|
E|--------------------------------------------------------------------------|



             F          Bb             C           F             F
e|---------------------------------------------15----------15-----------|
B|----------------------17^^--17^^r-15-17---18----18^^r-18----18--------|
G|---------------------------------------------------------------17-----|
D|-----7-8-8/10---------------------------------------------------------|
A|--10------------------------------------------------------------------|
E|----------------------------------------------------------------------|



          Bb
e|--15-17-18-17--20-18-17--20-18-17--20-18-17-20-18-17-20-18-17------------|
B|--------------------------------------------------------------20-18-17---|
G|-------------------------------------------------------------------------|
D|-------------------------------------------------------------------------|
A|-------------------------------------------------------------------------|
E|-------------------------------------------------------------------------|


             A                Dm
e|-------------------------------------------|
B|-------------------------------------------|
G|--19-17-------------19^-19^-19~------------|
D|--------20-19------------------------------|
A|-------------------------------------------|
E|-------------------------------------------|


       Gm
Lautan api...





(Outro:)



  A
Pergi dan takkan kembali...



     Bb           C            F                                Bb
e|-------------10-12----13--15-13^^r--13-13---------------15-15h17-17---|
B|--/11-----13-----------------------------------15-17-18---------------|
G|----------------------------------------------------------------------|
D|----------------------------------------------------------------------|
A|----------------------------------------------------------------------|
E|----------------------------------------------------------------------|


                    A                  Dm
e|--18^^r--17-15-15h17-17----------------------------|---|
B|------------------------------14--14h15~-----------|---|
G|---------------------------------------------------|---|
D|---------------------------------------------------|---|
A|---------------------------------------------------|---|
E|---------------------------------------------------|---|



Guitar tabs by rizalwahap
Tap to rate this tab
 
# A B C D E F G H I J K L M N O P Q R S T U V W X Y Z