Song name
# A B C D E F G H I J K L M N O P Q R S T U V W X Y Z

Misc Unsigned Bands - Rac - Hollywood tab

Figured this one out by ear. The other tab doesn't even attempt to sound close. Enjoy

Chorus
E|------------------------|
B|------------------------|
G|--10--8--8--6--6--------|
D|--10--8--8--6--6--6--6--|
A|--8---6--6--4--4--6--6--|
E|------------------4--4--|


Bridge
E|--------------------------|
B|--11--13--11--------------|
G|--------------13----------|x2
D|------------------13--13--|
A|--------------------------|
E|--------------------------|



E|------------------------------------------|
B|--11--13--11------------------------------|
G|--------------13--------------------------|x1
D|------------------13--13--11--13--11--10--|
A|------------------------------------------|
E|------------------------------------------|

Link to the song: https://soundcloud.com/greenlabelsound/rac-hollywood-feat-penguin-prison
Tap to rate this tab
 
# A B C D E F G H I J K L M N O P Q R S T U V W X Y Z