Song name
# A B C D E F G H I J K L M N O P Q R S T U V W X Y Z

Misc Unsigned Bands - Some Kind Of Hero - Ode To Joy tab

Ode To Joy® 

I left the background on this page blank so that if anyone wants to print our
tabs they can go ahead and do it, just please make sure you get our permission
before you post them anywhere else.
--------------------------------------------------------------------------------

Intro:

E--|-------------------------------------------------|
B--|-----3-3-3-3-----3-3-3-3-----3-3-3-3-----3-3-3-3-|
G--|----0---------0------------2------------0--------|
D--|---2---------2------------2----------------------|
A--|--3---------3------------0-----------2-----------|
E--|------------------------------------3------------|

This last part is played (4x)


Song/Verse:

C, C, C, C, Em, Em, Em, Em, A, A, A, G, G, G, G <-played (4x)


Song/Chorus:

C, C, C, C, Em, Em, Em, Em, A, A, A, Em, Em, Em, Em

C, C, C, C, Em, Em, Em, Em, A, A, A, G, G, G, G


Chorus is played (2x)

E--|----------------------------------------|
B--|----3-3-3-3----3-3-3-3----3-3-3-3-----3-|
G--|---0----------0----------2-----------0--|
D--|--2----------2----------2---------------|
A--|-3----------2----------0------------2---|
E--|-----------------------------------3----|

E3 strummed 2nd time


End

This is my band. This song is one of ours. To check for accuracy, just go to our
website www.somekindofhero.bravepages.com. You will find all of our songs are
tabbed out under music. All of the songs should be accurate because I tabbed them
out, and I am the guitar player for this band.
Tap to rate this tab
# A B C D E F G H I J K L M N O P Q R S T U V W X Y Z