Song name
# A B C D E F G H I J K L M N O P Q R S T U V W X Y Z

Misc Unsigned Bands - Satellite - Hardrock In Heaven tab

Hardrock In Heaven - Satellite
Written by Luka Schuurman and Storm de Boer

Standard tuning.

Chords:
E E E E
A A E E
B7 B7 B7 B7
B7 B7 [B A] [G E]

INTRO:
e--------------------------------|
B--------------------------------|
G-----------------2b3-1-2p1------|
D--7----5------2------------2----|
A--7----5------2-----------------|
E--5----3------0-----------------|
4x

e--------------------------------|
B--------------------------------|
G-----------------7b8-6-7p6------|
D--7----5------7------------7----|
A--7----5------7-----------------|
E--5----3------5-----------------|


e--------------------------------|
B--------------------------------|
G-----------------7b8-6-7p6-9----|
D--7----5------7-----------------|
A--7----5------7-----------------|
E--5----3------5-----------------|

e--------------------------------|
B--------------------------------|
G-----------------2b3-1-2p1------|
D--7----5------2------------2----|
A--7----5------2-----------------|
E--5----3------0-----------------|
2x

VERSE:
Same as intro but without the riff on the G-string.

CHORUS:
e--7-7-7-7-7-7-5--7-7-7-7-7-7-7-5--|
B--7-7-7-7-7-7-5--7-7-7-7-7-7-7-5--|
G--8-8-8-8-8-8-6--8-8-8-8-8-8-8-6--|
D--7-7-7-7-7-7-7--7-7-7-7-7-7-7-7--|
A--9-9-9-9-9-9-7--9-9-9-9-9-9-9-7--|
E--7-7-7-7-7-7-5--7-7-7-7-7-7-7-5--|

e--7-7-7-7-7-7-5--7-7-55-3-0-------------------|
B--7-7-7-7-7-7-5--7-7-55-3-0-------------------|
G--8-8-8-8-8-8-6--8-8-66-4-1----2b3b2-1-2p1----|
D--7-7-7-7-7-7-7--9-9-77-6-2----------------2--|
A--9-9-9-9-9-9-7--9-9-77-6-2-------------------|
E--7-7-7-7-7-7-5--7-7-55-3-0-------------------|
Tap to rate this tab
# A B C D E F G H I J K L M N O P Q R S T U V W X Y Z