Song name
# A B C D E F G H I J K L M N O P Q R S T U V W X Y Z

Misc Unsigned Bands - Steel Wings - Moonwaker tab

The steel wings r a new band in the uk (not very famous yet)and i'm the lead
guitarist in the band (craig turnbull)and heres the tabs to our first song MOONWAKER

E----------------------------------------------------------------------------
B----------------------------------------------------------------------------
G----------------------------------------------------------------------------
D-----------12--------------9---------------7---------------5---------------3
A-------12-----12-------9-------9-------7-------7-------5-------5-------3----
E---10--------------7---------------5---------------3---------------1--------

E----------------------------
B----------------------------
G----------------------------
D-------3-----------3-------3
A---3-----------3-------3----
E-----------1----------------

then it just goes into all this other stuff but i cant be assed doin that the now
the official website is http://www.souptown.com/music/steelwings
Tap to rate this tab
# A B C D E F G H I J K L M N O P Q R S T U V W X Y Z