Song name
# A B C D E F G H I J K L M N O P Q R S T U V W X Y Z

Misc Unsigned Bands - Charter Cable Commercial - Date Night tab

Charter Cable Commercial for Date Night... (I know..)

I was dabbling around, and I couldn't get my mind off of this song.. 
So catchy. Anyway, this is one of my first tabs.. did all by ear. 
I'm open for modifications... so far it sounds perfect (to me)
like this.


Capo 2

Intro: 

  G      Em        G        Em      G      Em        G      Em
e|----------------|----------------|----------------|----------------|
b|---0------0-----|---0-----0------|---0------0-----|---0-----0------|
g|--0--------0----|--0-------0-----|--0--------0----|--0-------0-----|
D|-0------2---2---|-0------2--2----|-0------2---2---|-0------2--2----|
A|----2--2--------|----2--2--------|----2--2--------|----2--2--------|
E|3---------------|3---------------|3---------------|3---------------|

Verse: (x2)
  
           I'd like.. to take you somewhere...            Where nobody
    G      Em        G        Em      G      Em        G      Em
e|----------------|----------------|----------------|----------------|
b|---0------0-----|---0-----0------|---0------0-----|---0-----0------|
g|--0--------0----|--0-------0-----|--0--------0----|--0-------0-----|
D|-0------2---2---|-0------2--2----|-0------2---2---|-0------2--2----|
A|----2--2--------|----2--2--------|----2--2--------|----2--2--------|
E|3---------------|3---------------|3---------------|3---------------|


  else can go...                    Where the two of us know...
  Am     D         Am     D         G      Em        G      Em
e|----------------|----------------|----------------|----------------|
b|--1------1h3h1--|--1------1h3h1--|---0------1-----|---3-----1------|
g|---2----------2-|---2----------2-|--0--------0----|--0-------0-----|
D|-2--2---0-------|-2--2---0-------|-0------2---2---|-0------2--2----|
A|0------0--------|0------0--------|----2--2--------|----2--2--------|
E|----------------|----------------|3---------------|3---------------|

Then repeat, just make sure to add an intro before you go into another verse.
Tap to rate this tab
# A B C D E F G H I J K L M N O P Q R S T U V W X Y Z