Song name
# A B C D E F G H I J K L M N O P Q R S T U V W X Y Z

Misc Unsigned Bands - Shreddingtilldeath - Legato-sweep-lick tab

 
 www.youtube.com/shreddingtilldeath

 |----------------------------------------------------| This is an 3 Octave
 |----------------------------------------------------| Ascending Legato run,
 |----------------------------------------------------| So this is the main
 |----------------------------------------------------| pattern, which is 
 |----------------------5-h6-h8-p6-p5--6-h8-h10-p8-p6-| repeated on the 2 
 |--5-h6-h8-p6-p5-h6-h8-------------------------------| Octaves higher


 Like this:

 |--------------------------------------------------------| When you play
 |--------------------------------------------------------| the lick in
 |------------------------7-h8-h10-p8-p7--8-h10-h12-p10-p8| standard tuning,
 |--7-h8-h10-p8-p7-h8-h10---------------------------------| the root note is
 |--------------------------------------------------------| G (1 step down!)
 |--------------------------------------------------------|

 |-----------------------------10-h11-h13-p11-p10---11-h13-h15-p13-p11-----|
 |--10-h11-h13-p11-p10-h11-h13---------------------------------------------|
 |-------------------------------------------------------------------------|
 |-------------------------------------------------------------------------|
 |-------------------------------------------------------------------------|
 |-------------------------------------------------------------------------|

 |-13b-15b-13-p10------------------------| Sweep last 4 notes
 |----------------11---------------------| 
 |-------------------12------------------| The idea of the lick was to
 |----------------------12---------------| combine legato with sweep
 |-------------------------10------------| picking                      

 Hope it helped ;)

Tap to rate this tab
# A B C D E F G H I J K L M N O P Q R S T U V W X Y Z