Song name
# A B C D E F G H I J K L M N O P Q R S T U V W X Y Z

Misc Unsigned Bands - All Your Hate - Deserve To Die tab

b(X) = bend to the Xth fret
r = release
/ = slide
p = pull-of
h = hammer-on

||--------------------------------------------------------------------------|
||--------------------------------------------------------------------------|
||-------14-15--14-15-15b17r15-14-------------------------------------------|
||----15--------------------------15--15-12-15/17--15-12-17p15p12h17p15p12h-|
||-17-----------------------------------------------------------------------|
||--------------------------------------------------------------------------|


||-------------------------|
||-------------------------|
||-------------------------|
||-17p15p12h17p15p12--19---|
||-------------------------|
||-------------------------|

||--------------------------------------17p15p14--------17p15p14------------|
||----------------------------------------------17p15p14--------17p15p14----|
||-------14-15--14-15-15b17r15-14-17b---------------------------------------|
||----15--------------------------------------------------------------------|
||-17-----------------------------------------------------------------------|
||--------------------------------------------------------------------------|

||-17p15p14--------17p15p14---------19p17p14h19p16p14h19p17p14h19p16p14-20b-|
||---------17p15p14--------17p15p14-----------------------------------------|
||--------------------------------------------------------------------------|
||--------------------------------------------------------------------------|
||--------------------------------------------------------------------------|
||--------------------------------------------------------------------------|

For the hammer-on pull-off parts I tap but just playing it as it's written down works :)


http://soundfrost.org/
Tap to rate this tab
# A B C D E F G H I J K L M N O P Q R S T U V W X Y Z