Song name
# A B C D E F G H I J K L M N O P Q R S T U V W X Y Z

Misc Unsigned Bands - Reverse Order - Keep A Little Secret tab

Basic Power Chords with a small hammer-on in the beginning.
this comes it after the drums in the into
E|------------------------------|
B|----6h8-----6h8---------------|
G|5-5---------------------------|
D|5-5-----5-5-----3-3--3--3-3-5-|
A|3-3-----5-5-----3-3--3--3-3-5-|
E|--------3-3-----1-1--1--1-1-3-|
Repeat^

"its a tuesday night..."
E|---------------------------------------------------|
B|---------------------------------------------------|
G|555-55------555-55---------------------------------|
D|555-55333-33555-55-555-555--------7777777755555555-|
A|333-33333-33333-33-555-555--------7777777755555555-|
E|------111-11-------333-333-Repeat-5555555533333333-|
repeat til Chorus

Chorus

"Whoah-wa-oh!..."
E|------------------------|
B|------------------------|
G|5555--------------------|
D|5555-55-5-5-3333-55-5-5-|
A|3333-55-5-5-3333-55-5-5-|
E|-----33-3-3-1111-33-3-3-|

thats really it. other parts of the song use these same power chords. look for the right 
parts, put it together, and there you go!
Tap to rate this tab
# A B C D E F G H I J K L M N O P Q R S T U V W X Y Z