Song name
# A B C D E F G H I J K L M N O P Q R S T U V W X Y Z

Misc Unsigned Bands - Farewell My Love - Just Another Soul Acoustic tab

             Am
Just another soul....
F
Thinks he's got it all
        C
Figured out, but...
       G
You're just another soul...


Am
Feel
F
The wind beneath your feet
             C
I don't care to see you leave
            G
What you're in for now beats jealousy
Am
I'm gone from this
F
Wretched place
G
Just another face
F          C            Am
In and out of my head


e------------------------------------------------3-----------3---------------|
B--------1-------1---------1---------1----------3-----------3----------------|
G------2-------2---------0---------0-----------------------------------------|
D----2-------2---------2---------2-------------------------------------------|
A--0-------0---------3---------3-------------2-----------2-------------------|
E-----------------------------------------3-----------3----------------------|
   Scars.........Run down your arms. They make you feel so lonely. Its
e--------------------------3-------3----|
B--------1-------1-------3-------3------|
G------2-------2------------------------|
D----3-------3--------------------------|
A--3-------3----------2--------2--------|
E-------------------3--------3----------|
killing me. It's tearing me a-


Am
Life...
   F
Is just a game
         C
Says the lady with the gold drops
G
Filling her hands

oh


Am
Life...
   F
Is just a war
         C
Says the kid who cannot
G
Take any more


Am     F
Show me Paradise
         C
where the waters fall
    G
And fires fly
Am         F
   I can't believe my eyes
       C                    G
You're falling over all the times you've lied


Am           F
Waiiit for reality
        C         G
I won't stand and watch you bleed
            Am               F
What you're in for now beats death it seems


     Am
Keep me...
F
alive
C           G
I crave the envy


Am      F
And the rush
    C         G
That caves the empty


e------------------------------------------------3-----------3---------------|
B--------1-------1---------1--------1-----------3-----------3----------------|
G------2-------2---------0--------0------------------------------------------|
D----2-------2---------2--------2--------------------------------------------|
A--0-------0---------3--------3--------------2-----------2-------------------|
E-----------------------------------------3-----------3----------------------|
   Scars.........Run down your arms. They make you feel so lonely. Its
e--------------------------3-------3----|
B--------1-------1-------3-------3------|
G------2-------2------------------------|
D----3-------3--------------------------|
A--3-------3----------2--------2--------|
E-------------------3--------3----------|
killing me. It's tearing me a-


Am
Life...
   F
Is just a game
         C
Says the lady with the gold drops
G
Filling her hands

oh


Am
Life...
   F
Is just a war
         C
Says the kid who cannot
G
Take any more


Am     F
Show me Paradise
         C
where the waters fall
    G
And fires fly
Am         F
   I can't believe my eyes
       C                    G
You're falling over all the times you've lied


Am F C G x2
(lots of "oooooh"s)


(softly)
             Am
Just another soul
F
Thinks he's got it all
        C
figured out but
G
It's just another sound
     Am
Of a heart... beat...
F
Slowing down
G
We're breaking ground

We're breaking ground

            Am
Just another soul
F
Thinks he's got it all
        C
figured out but
     G
It's just another sound
     Am
Of a heart... beat...
F
Slowing down
G
We're breaking ground
Tap to rate this tab
# A B C D E F G H I J K L M N O P Q R S T U V W X Y Z