Song name
# A B C D E F G H I J K L M N O P Q R S T U V W X Y Z

Misc Unsigned Bands - Ekamatra - Sentuhan Kecundang tab

EKAMATRA - Sentuhan Kecundang (intro and solo)



Key:

^  - bend
^^ - full bend
h  - hammer on
p  - pull off
r  - release bend
/  - slide down
\  - slide up
~  - vibrato
() - finger tap



(Intro:)


    F#m            G#                 C#                 F#m
e|---------------------------------------------------------------------|
B|--/10--10-9-10---9--9-7-9-7h9p7-6---/9--9-7-9---12^^r--10--10-9-10---|
G|---------------------------------------------------------------------|
D|---------------------------------------------------------------------|
A|---------------------------------------------------------------------|
E|---------------------------------------------------------------------|


    Bm               C#       G#   C#        F#m
e|-------------------------------------------------------------|
B|--/7--7-6-7--7h9p7-6--7-9---/9---12-12^^r--10-9h10p9-7-6-7---|
G|-------------------------------------------------------------|
D|-------------------------------------------------------------|
A|-------------------------------------------------------------|
E|-------------------------------------------------------------|


                                        |Palm mute|
    Bm              C#              F#m        F#m
e|-----------------------------------------------------|
B|-----------------------------------------------------|
G|--/9--7h9p7-6-7---6^--6h7p6-4-6--4-2---1-2-4-1~------|
D|-----------------------------------------------------|
A|-----------------------------------------------------|
E|-----------------------------------------------------|


  F#m   Bm
Kita tempuh...



(Solo:)


   G#  C#   D  C#  F#m  F#m
Perpisahan ini...


                                   |Palm mute|
    Bm         G#           C#     F#m
e|---------------------------------------------------|
B|--9^---9~--7-9--7h9p7-6---6^-----------------------|
G|-----------------------------6---6-----------------|
D|-----------------------------------9-7-6-7---------|
A|-------------------------------------------9-------|
E|---------------------------------------------------|



    D                    E              C#                 A#
e|--------------14-16-17/19--19-16-------------------------------------------|
B|--------10/14--------------------17---17^^r-17--15h17p15-14-12-------------|
G|--11-13--------------------------------------------------------15^r-13-15--|
D|---------------------------------------------------------------------------|
A|---------------------------------------------------------------------------|
E|---------------------------------------------------------------------------|



    Bm                   D                              C#
e|-----------12----------------------------------------------|
B|--12-14-15----------17-------------------------------------|
G|--------------14-13----13-14-------------------------------|
D|-----------------------------16-14^^r-14^^r--12h14p12-11---|
A|-----------------------------------------------------------|
E|-----------------------------------------------------------|



               C#                   D         E
e|--------------------------------------------------------|
B|---------------------------------/10--10^^r-9-----------|
G|----------------------------------------------9h11-9----|
D|--11----------------------------------------------------|
A|-----14-12-11-------------------------------------------|
E|--------------14---13h14-13-----------------------------|



    C#                 A#                 Bm                E
e|-------------------------------------------------14-16-17-19-16------------|
B|--17^^r-17--15h17p15-14-12--------------12-14-15----------------19--17-17--|
G|---------------------------15^r-13-15--------------------------------------|
D|---------------------------------------------------------------------------|
A|---------------------------------------------------------------------------|
E|---------------------------------------------------------------------------|



    A            D                             C#               C#
e|------------------------------------------------------------------------|
B|--15~--17~--15h17p15-14-12^^-10-12---10h12p10-9---7h9p7-6---------------|
G|------------------------------------------------------------7-6---4-----|
D|--------------------------------------------------------------------7---|
A|------------------------------------------------------------------------|
E|------------------------------------------------------------------------|



         F#m                       F#m
e|------------------------14-16^r--14~----------|
B|------------------10/14-----------------------|
G|---------------13-----------------------------|
D|--6h7p6-4-------------------------------------|
A|----------------------------------------------|
E|----------------------------------------------|


      F#m
Putus tak bisa...




Guitar Tabs by rizalwahap
Tap to rate this tab
 
# A B C D E F G H I J K L M N O P Q R S T U V W X Y Z